Guitar Tabs, Chords and Lyrics


Elizabeth On The Bathroom Floor   Eels



This is my very first tab, so, well, I dunno.. just wanted to say that, though I think 
a pretty correct one.

***Eels - Elizabeth on the Bathroom Floor***

Capo 5th fret


intro

E|--0---2-0----0-2-0---0-3-0---0-3--|
B|----0-----0--------1-------1------|
G|--1-------1--------0--------------|
D|----------------------------------|
A|----------------------------------|
E|----------------------------------| 2x

E|--2--2--2-2-2--2-2-0--3--3--3-3-3--3-3-0--|
B|--0--0--0-0-0--0-0-0--1--1--1-1-1--1-1-0--|
G|--1--1--1-1-1--1-1-0--0--0--0-0-0--0-0-0--|
D|------------------------------------------|
A|------------------------------------------|
E|------------------------------------------| 2x


E|--2--2--2-2-2--2-2-0--3--3--3-3-3--3-3-0-|
B|--0--0--0-0-0--0-0-0--1--1--1-1-1--1-1-0-|
G|--1--1--1-1-1--1-1-0--0--0--0-0-0--0-0-0-|
D|-----------------------------------------|
A|-----------------------------------------|
E|-----------------------------------------|
        1)Laying...  ...floor
	2)Walter's...	telephone


E|--2--2--2-2-2--2-2-0--3--3--3-3-3--3-3-0-|
B|--0--0--0-0-0--0-0-0--1--1--1-1-1--1-1-0-|
G|--1--1--1-1-1--1-1-0--0--0--0-0-0--0-0-0-|
D|-----------------------------------------|
A|-----------------------------------------|
E|-----------------------------------------|
       1)Kitty...    ...more 		   And
       2)Tell him...	home	           'Cause


E|--5--5--5-5-5--5-5-0--4--4--4-4-4--4-4-0-|
B|--3--3--3-3-3--3-3-0--2--2--2-2-2--2-2-0-|
G|--2--2--2-2-2--2-2-0--1--1--1-1-1--1-1-0-|
D|-----------------------------------------|
A|-----------------------------------------|
E|-----------------------------------------|
  1)I...                try...              But
  2)I...		I...		    I'm


E|--2--2--2-2-2--2-2-0--3--3--3-3-3--3-3-0-|
B|--0--0--0-0-0--0-0-0--1--1--1-1-1--1-1-0-|
G|--1--1--1-1-1--1-1-0--0--0--0-0-0--0-0-0-|
D|-----------------------------------------|
A|-----------------------------------------|
E|-----------------------------------------|
  1)Waking up...        wanna die
  2)Going to...         always high


Verse 2, and then:


E|--2--2--2-2-2--2-2-0--3--3--3-3-3--3-3-0--|
B|--0--0--0-0-0--0-0-0--1--1--1-1-1--1-1-0--|
G|--1--1--1-1-1--1-1-0--0--0--0-0-0--0-0-0--|
D|------------------------------------------|
A|------------------------------------------|
E|------------------------------------------| 2x


E|--2--2--2-2-2--2-2-0--3--3--3-3-3--3-3-0-|
B|--0--0--0-0-0--0-0-0--1--1--1-1-1--1-1-0-|
G|--1--1--1-1-1--1-1-0--0--0--0-0-0--0-0-0-|
D|-----------------------------------------|
A|-----------------------------------------|
E|-----------------------------------------|
            My name's Elizabeth

E|--2--2--2-2-2--2-2-0--3--3--3-3-3--3-3-0-|
B|--0--0--0-0-0--0-0-0--1--1--1-1-1--1-1-0-|
G|--1--1--1-1-1--1-1-0--0--0--0-0-0--0-0-0-|
D|-----------------------------------------|
A|-----------------------------------------|
E|-----------------------------------------|
           My life is piss and shit

E|--2--2--2-2-2--2-2-0--3--3--3-3-3--3-3-0-|
B|--0--0--0-0-0--0-0-0--1--1--1-1-1--1-1-0-|
G|--1--1--1-1-1--1-1-0--0--0--0-0-0--0-0-0-|
D|-----------------------------------------|
A|-----------------------------------------|
E|-----------------------------------------|

E|--2--2--2-2-2--2-2-0--3--3--3-3-3--1-1-1-1-1-|
B|--0--0--0-0-0--0-0-0--1--1--1-1-1--2-2-2-2-2-|
G|--1--1--1-1-1--1-1-0--0--0--0-0-0--2-2-2-2-2-|
D|---------------------------------------------|
A|---------------------------------------------|


Important: The song above is NOT stored on the Chordie server. The original song is hosted at www.guitaretab.com. Chordie works as a search engine and provides on-the-fly formatting. Chordie does not index songs against artists'/composers' will. To remove this song please click here.

This song is displayed as text-only. Transposing and tuning is only available for chordpro-songs.

Login - add to songbook

Rating click stars to rate

Layout
Accuracy

SHARE PAGE  




You need to log in to post comments