Guitar Tabs, Chords and Lyrics


Naar Aftensolen Rinne   Einherjer



EINHERJER
"Naar Aftensolen Rinner" from album Far Far North

Sorry, but I tabbed only the intro riff. Maybe later I tab the whole
song.

Riff 1
E-|-----------------------------------------------------|
B-|-----------------------------------------------------|
G-|-----------------------------------------------------|
D-|----------2------------------------------------------|
A-|----0-3-2---5-3-0-2----0-2-3-2-0-----0---------------|
E-|--0------------------0-----------3-5-----------------|

E-|-----------------------------------------------------|
B-|-----------------------------------------------------|
G-|-----------------------------------------------------|
D-|----------2------------------------------------------|
A-|----0-3-2---5-3-0-2--2-3-5-3-2---2-3-2-0---0---------|


Important: The song above is NOT stored on the Chordie server. The original song is hosted at www.guitaretab.com. Chordie works as a search engine and provides on-the-fly formatting. Chordie does not index songs against artists'/composers' will. To remove this song please click here.

This song is displayed as text-only. Transposing and tuning is only available for chordpro-songs.

Login - add to songbook

Rating click stars to rate

Layout
Accuracy

SHARE PAGE  




You need to log in to post comments