Chordie logo

Leichenlager   Eisregen



Interpret: Eisregen
Tuning: Standart


Intro:

e|------------------------------------------|
a|------------------------------------------|
g|------------------------------------------|
D|----4----4----5----5----9----9----9----9--|  x 5
A|---4-4--4-4--3-3--5-5--7-7--7-7--7-7--7-7-|
E|-2-----2----3----3----7----7----7----7----|


Riff 1:

e|--------------------|
a|--------------------|
g|--------------------|
D|-4---4---4---4---7~-| x 4
A|-4---4---4---4---5~-|
E|-2---2---2---2---5~-|


Riff 2:

e|----------------------|
a|----------------------|
g|----------------------|
D|--8---7---3-----3-2-0-| x 4
A|----------------------|
E|----------------------|


Repeat Riff 1  4x

Repeat Intro   4x 


Riff 3:

e|------------------------------------|
a|------------------------------------|
g|-44444444-55555555------------------|
D|-44444444-55555555-55555555-4444442-|  x 6
A|-22222222-33333333-55555555-4444442-|
E|-22222222-33333333-33333333-2222220-|


Riff 4:

e|----------------------|
a|----------------------|
g|---4----4----4----5---|
D|--4-4--4-4--4-4--5-5--|  x 16
A|-2----2----2----3-----|
E|----------------------|


Riff 5

e|------------------------|
a|------------------------|
g|------------------------|
D|-44444444-7777-10101010-|  x 8
A|-44444444-7777-10101010-|
E|-22222222-5555-8-8-8-8--|


Riff 6  (this Riff is played one minute palm muting, so play it:)

e|---|
a|---|
g|---|
D|-2-|
A|-2-| x 300
E|-0-|
  PM



Repeat Riff 5  6x

Repeat Riff 3  6x


Outro:

e|-----------------------------------------|
a|-----------------------------------------|
g|---4----4----5----5----------------------|
D|--4-4--4-4--5-5--5-5---5----5----4----4--| 4 x
A|-2----2----3----3-----5-5--5-5--4-4--4-4-|
E|---------------------3----3----2----2----|


Important: The song above is NOT stored on the Chordie server. The original song is hosted at www.guitaretab.com. Chordie works as a search engine and provides on-the-fly formatting. Chordie does not index songs against artists/composers will. To remove this song please click here.

This song is displayed as text-only. Transposing and tuning is only available for chordpro-songs.

Login - add to songbook

Rating click stars to rate

Layout
Accuracy

SHARE PAGE  

You need to log in to post comments