Guitar Tabs, Chords and Lyrics


Wundwasser   Eisregen



Interpret: Eisregen
Tuning: A step Down


Bass Intro for Guitar:

d|-------------------------------------------|
a|-------------------------------------------|
F|-------------------------------------------|
C|---4-4--2-4--2----2-4--4----4----4-4--4-2--|
G|--2-2--2----4-4--4----4-4--4-4--2-2--------|
D|-2----2----2----2----2----2----2----2------|

d|-------------------------------------------|
a|-------------------------------------------|
F|-------------------------------------------|
C|---7----7----7----5-7---9----9----7----7---|
G|--5-5--5-5--7-7--7-----7-7--7-7--5-5--5-5--|
D|-5----5----5----5-----7----7----5----5-----|

d|----------------------------------|
a|----------------------------------|
F|----------------------------------|
C|---4-4---2-4---2----2----4----4---|
G|--2-2---2-----2-2--2-2--2-2--2-2--|
D|-2-----2-----0----0----2----2-----|


Riff 1:

d|----------------------------------------------------------------|
a|----------------------------------------------------------------|
f|-5---5-4-5-5-4---4-545-------------------------7---7-5-4-----5--|
C|-----------------------4---4-5-7---7-5-4--7---7------------7----|
G|----------------------------------------------------------------|
D|----------------------------------------------------------------|
PM                                   . . .


Riff 2:

d|--------------------------------------------------------------|
a|--------------------------------------------------------------|
f|--------------------------------------------------------------|
C|-7--------5-------7-777777777777--7--------5------44444444444-|
G|-7--------5-------5-555555555555--7--------5------22222222222-|
D|-5--------3-------5-555555555555--5--------3------22222222222-|
PM                    ............                  ...........


Up to Chorus

d|-------|
a|-------|
F|-4-2-0-|
C|-------|
G|-------|
D|-------|

Chorus:

d|--------------------------------------------------------------------------|
a|--------------------------------------------------------------------------|
f|--------------------------------------------------------------------4-2-0-|
C|22222222-77777777-77777777-22222224-55555555-44444-777-222222222222-------|
G|22222222-55555555-77777777-22222224-55555555-44444-555-222222222222-------|
D|00000000-55555555-55555555-00000002-33333333-22222-555-000000000000-------|
PM........ ........ ........ ......   ........ ..... ... ............


Riff 3:

d|--------------------------------------------------------------|
a|--------------------------------------------------------------|
f|--------------------------------------------------------------|
C|-22222222-77777777-77777777-2222222-4-55555555-4-777777777777-|
G|-22222222-55555555-77777777-2222222-4-55555555-4-555555555555-|
D|-00000000-55555555-55555555-0000000-2-33333333-2-555555555555-|
PM ........ ........ ........ ......    ........ . ............


Riff 4:

d|---------------------------------|
a|---------------------------------|
f|-4-4-4-4-----------------4-4-4-4-|
C|-4-4-4-4-4-4-4-4-4-4-4-4-4-4-4-4-|
G|-2-2-2-2-4-4-4-4-4-4-4-4-2-2-2-2-|
D|---------2-2-2-2-2-2-2-2---------|

d|---------------------------------|
a|---------------------------------|
f|-7-7-7-7---------9-9-9-9-7-7-7-7-|
C|-7-7-7-7-7-7-7-7-9-9-9-9-7-7-7-7-|
G|-5-5-5-5-7-7-7-7-7-7-7-7-5-5-5-5-|
D|---------5-5-5-5-----------------|


d|-------------------------|
a|-------------------------|
f|-4-4-4-4---------4-4-4-4-|
C|-4-4-4-4-2-2-2-2-4-4-4-4-|
G|-2-2-2-2-2-2-2-2-2-2-2-2-|
D|---------0-0-0-0---------|


Riff 5:

d|------------------------------------------|
a|------------------------------------------|
f|---------004444442244000000004444----4444-|
C|-22222222------------------------2222-----|
G|------------------------------------------|
D|------------------------------------------|
PM ........................................


Bass Outro for Guitar:

d|-------------------------------------------|
a|-------------------------------------------|
F|-------------------------------------------|
C|---4-4--2-4--2----2-4--4----4----4-4--4-2--|
G|--2-2--2----4-4--4----4-4--4-4--2-2--------|
D|-2----2----2----2----2----2----2----2------|

d|--------------------------------------|
a|--------------------------------------|
F|--------------------------------------|
C|---7----7----7----7----5---5-4-2--7~--|
G|--5-5--5-5--7-7--7-7--5-5---------5~--|
D|-5----5----5----5----3---3--------5~--|



Play:

Bass Intro:        
Riff 1:            1x
Riff 2:            2x
Up to Chorus:      1x
Chorus:            2x
Riff 3:            1x
Riff 4:            1x
Riff 1:            1x
Riff 5:            6x
Riff 2:            1x
Up to Chorus:      1x
Chorus:            2x
Riff 3:            1x
Bass Outro:        1x



Important: The song above is NOT stored on the Chordie server. The original song is hosted at www.guitaretab.com. Chordie works as a search engine and provides on-the-fly formatting. Chordie does not index songs against artists/composers will. To remove this song please click here.

This song is displayed as text-only. Transposing and tuning is only available for chordpro-songs.

Login - add to songbook

Rating click stars to rate

Layout
Accuracy

SHARE PAGE  




You need to log in to post comments