Weather To Fly

Elbow

 F133211

(C) * (G/B)
INTRO:	e|------------------------------|------------------------------|
	B|------------1-----------------|------------1-----------------|
	G|---2--0---0---0---2--0---0--0-|---2--0---0---0---2--0---0--0-|
	D|------------------------------|------------------------------|
	A|-3------3-------3------3------|-2------2-------2------2------|
	E|------------------------------|------------------------------|


 BbF
	e|------------------------------|-------------------------------------|
	B|------------1-----------------|------------1------------------------|
	G|---2--0---0---0---2--0---0--0-|---2--0---0---0---2--0---------------|
	D|------------------------------|-------------------------------------|
	A|-1------1-------1------1------|-------------------------------------|
	E|------------------------------|-1------1-------1------1--1--1--1--1-|

 CG/B
	e|------------------------------|------------------------------|
	B|------------1-----------------|------------1-----------------|
	G|---2--0---0---0---2--0---0--0-|---2--0---0---0---2--0---0--0-|
	D|------------------------------|------------------------------|
	A|-3------3-------3------3------|-2------2-------2------2------|
	E|------------------------------|------------------------------|


(Bb) (F) **
	e|------------------------------|--------------------3--3--3--3--3--3--3-|
	B|------------1-----------------|------------1-------1--1--1--1--1--1--1-|
	G|---2--0---0---0---2--0---0--0-|---2--0---0---0--0--0--0--0--0--0--0--0-|
	D|------------------------------|-----------------3----------------------|
	A|-1------1-------1------1------|----------------------------------------|
	E|------------------------------|-1------1-------------------------------|


*Are we having the time of our lives? Are we having the time of our lives?
Are we coming across clear? Are we coming across fine?
Are we part of the plan here? Are we having the time of our lives?
 CG/B
        **Are we coming across clear? Are we coming across fine?
 BbFadd9C
        Are we having the time of our lives?  Are we part of the plan here?

 C
V1:       We have the drive and time on our hands
 G/B
         One little room and the biggest of plans
 Bb
         The days were shaping up frosty and bright
 Fadd9
        Perfect weather to fly, perfect weather to fly

 C
V2:      Poundin' the streets where my fathers feet still
 G/B
        Ring from the walls we'd sing in the doorways
 Bb
        Or bicker and row just figuring how
 Fadd9
        We were wired inside, perfect weather to fly

 C
V3:      So in looking to stray from the line
 G/B
        We decided instead we should pull out the thread that was
 Bb
        Stitching  us into this tapestry vial
 Fadd9
        And why wouldn't you try? Perfect weather to fly

V4: (As V1)

V5: (As V2)

V6: (As V3)

OUTRO: | C | G/B |
| Bb | Fadd9 |
| C | G/B |
| Bb | Fadd9 |

| C | G/B |
| Bb | Fadd9 |
| C* | G/B* |
| Bb* | F |

-rigs-


Bb C F Fadd9 G/B
variations - click chord images
Transpose chords:
Tuning:
Cool service:
View: Size:
A  A  A
Rating:
Layout:
  • Currently 2.5/5 Stars.
  • 1
  • 2
  • 3
  • 4
  • 5
 
Accuracy:
  • Currently 5/5 Stars.
  • 1
  • 2
  • 3
  • 4
  • 5
 
click stars to rate
Chordie recommends:
Learn to play guitar with video-based, online guitar lessons at JamPlay.com
Songbook:
Login to add this song to your songbook
Support the artist
Preview/buy this song
MSN Music
Why this non-profit ad?

 
login to add comments/video/corrections