Chordie logo


Stops   Elbow



The strumming isn't in the tab, listen to the song for that.  Just the basic chords in 
arrangements.


Verse
-x------x------6------5------| Played twice
-x------x------7------7------|
-2------4------8------7------|
-4------6------8------7------|
-4------6------6------5------|
-2------4--------------------|

Bridge
-x------3---2---3-----2-|  Played Twice
-x------0---3---0-----3-|
-2------0---2---0-----2-|
-4------0---0---0-----0-|
-4------2-------2-------|
-2------3-------3-------|

Chorus
-2-----2-----------|  Played twice
-5-----3-----------|
-4-----4-----------|
-2-----4-----------|
-2-----2-----------|
-0--4--------------|

Chorous outro
-2----2------2-----|
-2----2------2-----|
-4----3------2-----|
-4----4------4-----|
-4----4------4-----|


Important: The song above is NOT stored on the Chordie server. The original song is hosted at www.guitaretab.com. Chordie works as a search engine and provides on-the-fly formatting. Chordie does not index songs against artists/composers will. To remove this song please click here.

This song is displayed as text-only. Transposing and tuning is only available for chordpro-songs.

Login - add to songbook

Rating click stars to rate

Layout
Accuracy

Jango Player

SHARE PAGE  




You need to log in to post comments