Guitar Tabs, Chords and Lyrics


Battle Rages On  Unknown

--------------------------



--------------------------

-------------|
D-----000232-|
A-----002220-|
G-----320033-|
--------------------------
--------------------------
---------------------------------------|
-----1-----1-------1-----0-----0-----0-|
---0-----0-------0-----0-----0-----0---| 2x
-2-----2-------2-----2-----2-----2-----|
---------------------------------------|
---------------------------------------|
[Am7]                                [Am7/B]                            
---------------0-0-0-------------0-0-0-|
-----1-----1---1-1-1-----0-----0-0-0-0-|
---0-----0-----0-0-0---0-----0---0-0-0-|
-2-----2-------2-2-2-2-----2-----2-2-2-|  2x
---------------0-0-0-------------0-0-0-|
---------------0-0-0-------------0-0-0-|

-Start Strumming Am7 and whatever "002000" is.
-Then Start Going Between Em and Am.
-Pick up the speed untill you're "tremolo-strumming".
-End it by strumming Em hard, letting it ring, and then hitting
it again and palm muting it fast.

Intro To Song
(This part is really a sample of a Barenaked Ladies cover of
Bruce Cockburn's song "McDonalds Girl".)
-2-0-3-0-2-3-0----------------|
-3-2-3-2-3-3-2----------------|
-2-2-0-2-2-0-2-------------0--|
-0-2-0-2-0-0-2-------0-2-4----|
-0-0-2-0-0-2-0-0-2-4----------|
-----3-----3------------------|


Verse1
[Em]     There's [G]darkness in the s[D]ky
[Em]     And in s[G]ome dark corner a s[D]hadow cries
[Em]     Things u[G]sed to be differe[D]nt
[Em]     And now [G]that's just a [D]memory

Chorus
[Em]     And The [G]Battle Rages [D]On   3x
     Into the [G]night

Em G D 2x

Bridge:
[C]  [Am]   [Em]   [G]  [D]                           
Chorus

End Of The Song

Important: The song above is NOT stored on the Chordie server. The original song is hosted at www.guitaretab.com. Chordie works as a search engine and provides on-the-fly formatting. Chordie does not index songs against artists'/composers' will. To remove this song please click here.

Text color:
Chord color:
Chord grids: 
Font size:    
Page size: 

Am Am7 Am7/B C D Em G
variations - click chord images

Login - add to songbook

Transpose chords

Tuning

Rating click stars to rate

Layout
Accuracy

SHARE PAGE  




You need to log in to post comments