Guitar Tabs, Chords and Lyrics


Uh Oh Hello   Elefant



ORDER:
Intro
Verse
Chorus
Verse
Chorus
Bridge
Chorus 
End on C5

INTRO (bass part, play as many times as you need)

e-|--------------|
B-|--------------|
G-|--------------|
D-|--------------|
A-|--------------|
E-|-8-55-66-88---|

VERSE (bass part, play as many times as you need)

e-|--------------|
B-|--------------|
G-|--------------|
D-|--------------|
A-|--------------|
E-|-8-55-66-88---|

VERSE (lead guitar part, play as many times as you need)

e-|---------------------|
B-|---------------------|
G-|-5s7s5-5s7s5-555-7-5-|
D-|---------------------|
A-|---------------------|
E-|---------------------|

CHORUS (play as many times as you need)

e-|----------------------|
B-|----------------------|
G-|----------------------|
D-|-10---7-7--8-8--10-10-|
A-|-10---7-7--8-8--10-10-|
E-|--8---5-5--6-6---8--8-|

BRIDGE (starts after the singing stops, play as many times as you need)

e-|----------------------|
B-|----------------------|
G-|----------------------|
D-|-10---7-7--8-8--10-10-|
A-|-10---7-7--8-8--10-10-|


Important: The song above is NOT stored on the Chordie server. The original song is hosted at www.guitaretab.com. Chordie works as a search engine and provides on-the-fly formatting. Chordie does not index songs against artists'/composers' will. To remove this song please click here.

This song is displayed as text-only. Transposing and tuning is only available for chordpro-songs.

Login - add to songbook

Rating click stars to rate

Layout
Accuracy

SHARE PAGE  




You need to log in to post comments