Chordie logo

Be Your Girl   Elfen Lied



Artist: Chieko Kawabe

Song: Be your girl

Tuning - standard

My first tab so go easy


Chords 1 -- Slightly distorted (Played through intro and Chorus)

e|--1111--11111--|--33333--|--55555--|--11111--|--55555--|--33333--|--11111--|
b|--1111--11111--|--33333--|--55555--|--11111--|--55555--|--33333--|--11111--|
g|--3333--22222--|--55555--|--77777--|--33333--|--77777--|--55555--|--33333--|
d|--3333--33333--|--55555--|--77777--|--33333--|--77777--|--55555--|--33333--|
a|--1111--33333--|--33333--|--55555--|--11111--|--55555--|--33333--|--11111--|
E|--------11111--|---------|---------|---------|---------|---------|---------|

Riff 1 -- Slightly distorted

e|--------------|-----------|---------|--------|---------|
b|--------------|-----------|---------|--------|---------|
g|--------------|-----------|---------|--------|---------| the end bar is in
d|---5/7-5---5-3|-5/8--7-5-3|5/7-5-5-3|--------|--5/8--7-| there if you hear
a|--------------|-----------|---------|3/5--3--|--------8|
E|--------------|-----------|---------|--------|---------|

Riff 2 -- Major wah effects

e|--------------|-----------|
b|--------------|-----------|
g|--------------|-2--2------|
d|---3--3--3h5--|--------5p3|
a|--------------|-----------|
E|--------------|-----------|

Pre solo - Slight distortion

e|---------|---------|-----------|---------|---------|-----------|
b|---------|---------|-----------|---------|---------|-----------|
g|---------|---------|-----------|---------|---------|-----------|
d|-555555--|-777777--|-88--77---5|-555555--|-777777--|-7-7-7-7-7-|
a|-555555--|-777777--|-88--77---5|-555555--|-777777--|-7-7-7-7-7-|
E|-333333--|-555555--|-66--55---3|-333333--|-555555--|-5-5-5-5-5-|

Solo - Distortion

e|---------------|-------------------|---------|------------------------|
b|---------------|-----------3-4-5-6-|-6b--6/8-|-10-10-10-10--8h10p8--8-|
g|-5b---3-2-3-2--|----2-3-4-5--------|---------|--------------------10--|
d|-------------3-|-3-5---------------|---------|------------------------|
a|---------------|-------------------|---------|------------------------|
E|---------------|-------------------|---------|------------------------|

e|--------------------|--------------------|--------------------|
b|-8h10--11--10--10---|--------------------|--------------------|
g|-------------10--10-|--------------------|--------------------|
d|--------------------|-----------------10-|-----------------10-|
a|--------------------|---------10h12p10---|---------10h12p10---|
E|--------------------|-10h12p10-----------|-10h12p10-----------|

                         .  .  . .  .  .      .  .  . .  .  . .

e|-------------------|------------------------|-13h15p13--------13h15p13-|
b|-------------------|------------------------|---------13h15p13---------|
g|-------------------|------------------------|--------------------------|
d|-----------------10|-12-13-14-15--15b--14---|--------------------------|
a|---------10h12p10--|---------------------15-|--------------------------|
E|-10h12p10----------|------------------------|--------------------------|

    .  .  . .  .  . .

e|-13h17p13-|-13h15p13--------13|------13------13------13-|
b|----------|---------13h15p13--|-13h15---13h15---13h15---|
g|----------|-------------------|-------------------------|
d|----------|-------------------|-------------------------|

a|----------|-------------------|-------------------------|
E|----------|-------------------|-------------------------|

e|------13---17--13-|
b|-13h15--13--------|
g|------------------|
d|------------------|
a|------------------|
E|------------------|



Important: The song above is NOT stored on the Chordie server. The original song is hosted at www.guitaretab.com. Chordie works as a search engine and provides on-the-fly formatting. Chordie does not index songs against artists/composers will. To remove this song please click here.

This song is displayed as text-only. Transposing and tuning is only available for chordpro-songs.

Login - add to songbook

Rating click stars to rate

Layout
Accuracy

SHARE PAGE  



You need to log in to post comments