Guitar Tabs, Chords and Lyrics


Waterloo Sunset  Elliott Smith

   [Bb]      [F]      [C]     [Gm]      [Dm]      [Em]     
e--1-----1-----3-----3-----5-----0
B--3-----1-----5-----3-----6-----0
G--3-----2-----5-----3-----7-----0
D--3-----3-----5-----5-----7-----2
A--1-----3-----3-----5-----5-----2
E--x-----1-----x-----3-----X-----0



INTRO

e|-------1-----------------------------------------------------------------|
B|-1-3-1---3-1---------1---------------------------------------------------|
G|---------------0-2-0---2---0---------2-0---------------------------------|
D|-----------------------------------------3---0---------------------------|
A|-------------------------------3-5-3-------1---1-------------------------|
E|-------------1-----------0---0-------------------------------------------|


[Bb]    Dirty old r[F]iver, must you keep r[C]olling
Flowing in[Bb]to the night
People so [F]busy, makes me feel d[C]izzy
Taxi light s[Bb]hines so bright
But I d[Gm]on't  [Dm]    need no f[Bb]riends[C]
As long as I g[F]aze on Waterloo s[C]unset
I am in p[Bb]aradise   [C-C-F-Em-C-]            [Gm]

Every day I look at the world from [C]my window  [C-C-F-Em-C-]            [Gm]
But chilly, chilly is the evening time
[C]Waterloo sunset's f[Bb]i__n[F]e  [C]


Terry meets J[F]ulie, Waterloo S[C]tation
Every F[Bb]riday night
But I am so l[F]azy, don't want to w[C]ander
I stay at h[Bb]ome at night
But I d[Gm]on't  [Dm]     feel a[Bb]fraid [C]
As long as I g[F]aze on Waterloo s[C]unset
I am in p[Bb]aradise   [C-C-F-Em-C-]            [Gm]
Every day I look at the world from [C]my window  [C-C-F-Em-C-]            [Gm]
But chilly, chilly is the evening time
[C]Waterloo sunset's f[Bb]i__n[F]e  [C]


Millions of p[F]eople swarming like f[C]lies 'round Waterloo u[Bb]nderground
But Terry and J[F]ulie cross over the [C]river
Where they feel [Bb]safe and sound
And they d[Gm]on't  [Dm]    need no [Bb]friends[C]
As long as they g[F]aze on Waterloo s[C]unset
They are in p[Bb]aradise
OUTRO
                                                     [Bb]         [C]    [F]                          
e|-------1-----------------------------------------------------------------|
B|-1-3-1---3-1---------1---------------------------------------------------|
G|---------------0-2-0---2---0---------2-0---------------------------------|
D|-----------------------------------------3---0---------------------------|
A|-------------------------------3-5-3-------1---1-------------------------|
E|-------------1-----------0---0-------------------------------------------|



Important: The song above is NOT stored on the Chordie server. The original song is hosted at www.guitaretab.com. Chordie works as a search engine and provides on-the-fly formatting. Chordie does not index songs against artists'/composers' will. To remove this song please click here.

Text color:
Chord color:
Chord grids: 
Font size:    
Page size: 

Bb C Dm Em F Gm
variations - click chord images

Login - add to songbook

Transpose chords

Tuning

Rating click stars to rate

Layout
Accuracy

SHARE PAGE  




You need to log in to post comments