Coming Up Roses

Elliott Smith

 DGCFAD
 go to-> http://www.chordbook.com/guitarchords.php select edit tunning and
go down twice on each string then tune to your own guitar

 G355433
 C   332010 or C2 335553
C/G 032003
D# 66504x or D#2 668886
F 88-10-10-10-8
D 55403x

Inrto:

E -----------------|
B -0-0-0-0-0-0-0-0-|
G -0-0-0-0-0-0-0-0-|
D -5-4-2-0-5-4-2-0-|
A -----------------|
E -----------------|


 C2D#2BbC2D#2F
Verse 1
------

 BbC2
  I'm a junkyard full of false starts
 D#2Bb
  And I don't need your permission
 C2D#2BbC2
  To bury my love under this bare light bulb

Bridge 1
--------

 D#GCD#
  The moon is a sickle cell
 BbCD
  It'll kill you in time
 D#GCD#
  Your cold white brother riding your blood
 D
  Like spun glass in sore eyes

Chorus 1
--------

 GBbCC/GD#
  While the moon does its division you're buried below
 BbC2D#2BbC2
  And you're coming up roses everywhere you go
 D#2F
  Red roses follow

SOLO
 ----
* Play verse chords

* You'll have to listen to the song to get the rythm

E -----------------------------------------------------------------------------|
B -8-6--------8-6----------8-6-8-6-------------------------------6-5-6-5-------|
G -----7-5---------7-5-----8-8-8-7-7-7-5-------------------7-------------7-5---|
D --------8-5---------8----------------------8-5-7-8-8-7-8---------------------|
A -----------------------------------------------------------------------------|
E -----------------------------------------------------------------------------|


Bridge 2
--------

 D#GCD#
  The things that you tell yourself
 BbCD
  They'll kill you in time
 D#GCD#
  Your cold white brother alive in your blood
 D
  Spinning in the night sky

Chorus 2
--------

 GBbCC/GD#
  So you got in a kind of trouble that nobody knows   
 BbC2D#2BbC2
  It's coming up roses everywhere you go
 D#2F
  Red roses 

SOFT-> G Bb C C/G D# Bb C2 D#2 Bb C2 D#2 F Bb

by michaells


Bb C C/G C2 D D# D#2 F G
variations - click chord images
Transpose chords:
Tuning:
Cool service:
View: Size:
A  A  A
Rating:
Layout:
  • Currently 2.6/5 Stars.
  • 1
  • 2
  • 3
  • 4
  • 5
 
Accuracy:
  • Currently 2.9/5 Stars.
  • 1
  • 2
  • 3
  • 4
  • 5
 
click stars to rate
Chordie recommends:
Learn how to play guitar at JamPlay.com
Songbook:
Login to add this song to your songbook
Support the artist
Preview/buy this song
MSN Music
Why this non-profit ad?

 
login to add comments/video/corrections