Guitar Tabs, Chords and Lyrics


Oh Well Okay  Elliott Smith

[Bb]   Here's the [Bb/A]silhouette
the [Gm]face always turned [Bb]away    [Bb/A]
Gm Gm/E Gm/Eb (This part can be tricky, check the end for
advice)
the bleeding color gone to black
dying like a [Bb]day  [Bb/A]
[G]   couldn't figure o[Cm]ut what made you[Cm/Bb] so un[Ab]happy
shook your [Eb]head to say [Db]no no [Cm]no
and [Cm/Bb]stopped for a [Ab]spell
and [Cm]stayed that [F]way
oh [G]well, [Fm]okay


[Bb]   i got [Bb/A]pictures, i just [Gm]don't see it any[Bb]more    [Bb/A]
[Gm]   climbing [Gm/E]hour upon [Gm/Eb]hour through a total [Bb]bore   [Bb/A]
[G]   with the one i [Cm]keep where it[Cm/Bb] never [Ab]fades
in the [Eb]safety of a [Db]pitch black [Cm]mind
an [Cm/Bb]airless [Ab]cell that [Cm]blocks the [F]day
oh [G]well, [Fm]okay
SOLO (with slide, chords above tab) NOTE: The last Fm over 'okay' is the first chord in
solo.


| Fm Fm7 | Bb7 | Db | Ab
Ab/G |
e|-------------------------|------------------------|--------------------------|-------------------|
B|-------------------------|------------------------|--------------------------|-------------------|
G|------------5--5--5------|--/10---8---------------|--------------------------|-------------------|
D|-------------------------|------------/10---8-----|--6-----------6s8---6s8---|--10---------------|
A|-------------------------|------------------------|--------------------------|-------------------|
E|-------------------------|------------------------|--------------------------|-------------------|


| F F7 | Dm | Db | Ab
|
e|-------------------------|------------------------|--------------------------|-------------------|
B|-------------------------|------------------------|--------------------------|-------------------|
G|--------------5-----8----|--/12---10--------------|--------------------------|-------------------|
D|-------------------------|-------------/10---8----|--6-----------6s8---6s8---|--10---------------|
A|-------------------------|------------------------|--------------------------|-------------------|
E|-------------------------|------------------------|--------------------------|-------------------|


[F]  if you a get a [Bbm]feeling next [Bbm/Ab]time you [F#]see me
do me a [Db]favor and [B]let me [Bbm]know
'cos it's [Bbm/Ab]hard to [F#]tell
it's [Bbm]hard to [Eb]say
oh [F]well, [Ebm]okay
oh [F]well, [Ebm]okay
oh [F]well, [Ebm]okay

NOTE: In the Gm part I play the chords this way:

EADGBe EADGBe
Gm 3x033x or 3x0333 (Using your pinky to barre the 333)
Gm/E 3x233x 3x2333
Gm/Eb 3x133x 3x1333

(I hope that makes some sense...)

Important: The song above is NOT stored on the Chordie server. The original song is hosted at www.guitaretab.com. Chordie works as a search engine and provides on-the-fly formatting. Chordie does not index songs against artists'/composers' will. To remove this song please click here.

Text color:
Chord color:
Chord grids: 
Font size:    
Page size: 

Ab B Bb Bbm Bbm/Ab Cm Cm/Bb Db Eb Ebm F F# Fm G Gm Gm/E Gm/Eb
variations - click chord images

Login - add to songbook

Transpose chords

Tuning

Rating click stars to rate

Layout
Accuracy

SHARE PAGE  




You need to log in to post comments