A Distorted Reality Is Now A Necessity To Be Free

Elliott Smith

|---------------------------|

|---------------------------|
|---------------------------|
|-----6-4h6p4---4-----------|
|-------------6---4---------|
|-7-4-----------------------|

 G#mB
 I'm floating in a black balloon
 C#mE
 O.D. on Easter afternoon
 G#mF#mEB
    My mamma told me, "Baby stay clean,
 C#mE
there's no in between."      

And all you ladies and you gentleman
Between's all you've ever seen or been
Fit poorly and arrange the sight
Doll her up in virgin white

 G#mF#mE
    You disappoint me
 C#mD#m
 You people rakin' in on the world
|---------------------|
|---------------------|
|-3-4-6------4--------|
|-5-6-8------6--------|
|---------------------|
|---------------------|

 EF#mFE
The devil's script sells you
 BF#mG#mG
 the heart of a blackbird      

 EBC#mE
 Shine on me baby cause it's rainin' in my heart
|-----------------------------------------|
|-------------7---------------------------|
|-4--------\8---8-------4-----------------|   X2
|---6----------------------6--------------|
|-----------------------------------------|
|-----------------------------------------|

 G#mF#mEBC#mE
|-16/14------------16/14-----------16-------16--|
|------16/14------------16/14-------------------|
|------------16-13-----------16-13----13h16-----|
|-----------------------------------------------|
|-----------------------------------------------|
|-----------------------------------------------|


Sun's risin' on a choppy glare
Rain dropping acid brought up in the air
A distorted reality's is now a necessity to be free
|-12-12h14-----12h14-12h14-12--------|
|----------13------------------13----|
|------------------------------------|
|------------------------------------|
|------------------------------------|
|------------------------------------|


It's so disapointing
First I put it all down to luck
God knows why my country don't give a fuck

F#m F G B F#m G#m G 1st Ending 2nd Ending
|-----------------------------------------------------------|----|----------------------|
|-----------------------------------------------------------|----|----------------------|
|-----------------------------------------------------------|----|----------------------|
|-----------------------9------11------13---13-11-9-------|----|------------------------|
|------------9-10—13p11---11/13---13/14---------------11-9--|-11-|-9--------------9-11--|
|-4-4/7-9-11------------------------------------------------|----|-----2-4/7-9-11-------|


Shine on me baby cause it's rainin' in my heart
Shine on me baby cause it's rainin' in my heart

REMEMBER MXTABS!!!!

www.myspace.com/acrobatsdancrawford
http://dmcblue.googlepages.com/home


B C#m D#m E F F#m G G#m
variations - click chord images
Transpose chords:
Tuning:
Cool service:
View: Size:
A  A  A
Rating:
Layout:
  • Currently 2.4/5 Stars.
  • 1
  • 2
  • 3
  • 4
  • 5
 
Accuracy:
  • Currently 2.3/5 Stars.
  • 1
  • 2
  • 3
  • 4
  • 5
 
click stars to rate
Chordie recommends:
Learn to play this song & others via video guitar lessons at JamPlay.com
Songbook:
Login to add this song to your songbook
Support the artist
Preview/buy this song
MSN Music
Why this non-profit ad?

 
login to add comments/video/corrections