Guitar Tabs, Chords and Lyrics


Pictures Of Me  Elliott Smith

    [E] Start stop and start,[F#7] stupid acting smart
    [C] Flirting with the flicks,[Am] you say it's just for kicks
B C*
You'll be the victim of your own dirty tricks
    [G] You got yourself to t[F]ease and dis[C]please

Vs2
Doors swinging wide, you walked in to hide
Looking at your feet, failure's complete
Saw you and me on the coin-op tv
Frozen in fear every time we appear

Chorus
D F#7 C**
I'm not surprised at all and really, why should I be
Am* Em
See nothing wrong, see nothing wrong
D F#7 C**
So sick and tired of all these pictures of me
Am* Em
Completely wrong, totally wrong

Vs3
Go walking by, here come another guy
Jailer who sells personal hells
Who'd like to see me down on my fucking knees
Everybody's dying just to get the disease

SOLO

CHORUS
D F#7 C**
I'm not surprised at all and really, why should I be
Am* Em
See nothing wrong, see nothing wrong
D F#7 C**
I'm so sick and tired of all these pictures of me
     [G] Everybody's d[F#]ying just to get the dis[C]ease

Repeat last line 2x's

 Intro: ----0-------0---|----0------0---|----0------0---|----0----0--|
        ----0-------0---|----1------1---|----3------3---|----4----5--|
        ----1-------1---|----1------1---|----2------2---|----3----4--|
        ------2-------2-|------2------2-|------2------2-|------2-----|
----------------|---------------|---------------|--------------------|
        -0-------0------|-0------0------|-0------0------|-0------0---|


Part before chorus

        |--8----7----5----3------|       high e string
        |----------------------3-|


Solo over chorus chords

   1.  |-12-12-12-12-| high e        2.  |-12-12-12-12-|
       |-12-12-12-12-|   (repeat)        |-14-14-14-14-|     (repeat)
   3.  |-12-12-12-12-|               4.  |-12-12-12-12-|
       |-15-15-15-15-|    (repeat)       |-17-17-17-17-|      (repeat)
   5.  |-0--2--3--3--3--2--0--2--2--0--0-|      high e string
   6.  |---------------------------|
       |-5/3--1--------------------|
       |---------4--2-----0--------|
       |---------------------4--2--|
       |---------------------------|
       |---------------------------|

Listen to the album for correct timings

Important: The song above is NOT stored on the Chordie server. The original song is hosted at www.guitaretab.com. Chordie works as a search engine and provides on-the-fly formatting. Chordie does not index songs against artists'/composers' will. To remove this song please click here.

Text color:
Chord color:
Chord grids: 
Font size:    
Page size: 

Am C E F F# F#7 G
variations - click chord images

Login - add to songbook

Transpose chords

Tuning

Rating click stars to rate

Layout
Accuracy

SHARE PAGE  




You need to log in to post comments