Guitar Tabs, Chords and Lyrics


Wonder Of You  Elvis Presley

e|--------------------------------------|


B|--------------------------------------|


G|-12-12-12-12p11-9/11-12-14p12-12-12---|

D|--------------------------------------|
A|--------------------------------------|
E|--------------------------------------|
e|----------------------------------14-|
B|-------12-13-10/12-13-12-10/12-13-15-|
G|-12-14--------------------------------|
D|--------------------------------------|
A|--------------------------------------|
E|--------------------------------------|
[G]When no-one else can under[Em]stand me
[Am]When everything I do is [D]wrong
[G]You give me hope and [Em]consolation
[Am]You give me strength to carry [D]on
[G]And you’re always there to [Bm]lend a hand
In [C]every[D]thing I [Em]do
That’s the [C]wonder
[D]The wonder of you    [G]   [Bm]    [C]   [D]
[G]And when you smile the world is [Em]brighter
[Am]You touch my hand and I’m a [D]king
[G]Your kiss to me is worth a [Em]fortune
[Am]Your love for me is every[D]thing
[G]I’ll guess I’ll never know the [Bm]reason why
You [C]love me [D]like you [Em]do
That’s the [C]wonder
[D]The wonder of you    [G]   [Bm]    [C]   [D]
Lead guitar plays this over top of the G Bm C D progression leading out of chorus before
solo
e|--------------------------|
B|----------5-8-5-----------|
G|------5-7-----------------|
D|--5h7---------------------|
A|--------------------------|
E|--------------------------|


Solo over verse Progression: G Em Am D
e|--7-7-7-------3-5-7-7--|--8--8--8---------5-7-8--8--|
B|--8-8-8-7h8p7-5-7-8-8--|--10-10-10-8h10p8-7-8-10-10-|
G|----------------------------------------------------|
D|----------------------------------------------------|
A|----------------------------------------------------|
E|----------------------------------------------------|
e|--10-10-10----------7-8--10-10--|--12-12-12----------8--10-12-12-14-14-|
B|--12-12-12-10h12p10-8-10-12-12--|--13-13-13-12h13p12-10-12-13-13-15-15-|
G|-----------------------------------------------------------------------|
D|-----------------------------------------------------------------------|
A|-----------------------------------------------------------------------|
E|-----------------------------------------------------------------------|


[G]I’ll guess I’ll never know the [Bm]reason why
You [C]love me [D]like you [Em]do
That’s the [C]wonder
[D]The wonder of you  [G]      [C]  [D#]   [G]

Important: The song above is NOT stored on the Chordie server. The original song is hosted at www.guitaretab.com. Chordie works as a search engine and provides on-the-fly formatting. Chordie does not index songs against artists'/composers' will. To remove this song please click here.

Text color:
Chord color:
Chord grids: 
Font size:    
Page size: 

Am Bm C D D# Em G
variations - click chord images

Login - add to songbook

Transpose chords

Tuning

Rating click stars to rate

Layout
Accuracy

SHARE PAGE  




You need to log in to post comments