Chordie logo

Search And Destroy   Emanuel



Hey all, its me, the 12 year old boy startin a band calle dthe oracles. this is a song
off the tony hawks american wasteland soundtrack covered by emanuel. i foud this for it
its cover of the strooges song i think thats there name, hope u like

Intro x2
E---------------------------------------|
B---------------------------------------|
G--7--7-7--7-7-7-7---12-12-12-12---10---|
D--7--7-7--7-7-7-7---12-12-12-12---10---|
A--5--5-5--5-5-5-5---10-10-10-10----8---|
E---------------------------------------|

E-------------------------------------------------------------|
B-------------------------------------------------------------|
G-----10-12-12-------10----10------10-12-12-------10-10-12-10-|
D--12-------------------12------12----------------------------|
A-------------------------------------------------------------|
E-------------------------------------------------------------|

Verse
E---------------------------------------|
B---------------------------------------|
G---------------------------------------|
D--7-7-7-7--7-7-7-7--5-5-5-5--5-5-5-5---|
A--5-5-5-5--5-5-5-5--3-3-3-3--3-3-3-3---|
E---------------------------------------|
P.M.------------------------------------|

Chorus
E------------------------------------------------|
B------------------------------------------------|
G--7-7--7---7--7-7-7--3--3-3-3--5-5-5-5-5-5-5-5--|
D--7-7--7---5--5-5-5--3--3-3-3--5-5-5-5-5-5-5-5--|
A--5-5--5---3--3-3-3--1--1-1-1--3-3-3-3-3-3-3-3--|
E------------------------------------------------|

After-Chorus Riff
E------------------------------------------------------------------------------|
B------------------------------------------------------------------------------|
G------------------------------------------------------------------------------|
D--4-/-5-5-5--5-5-5--5-5-5-5--5-5-5-5----------8--8-8--8-8--8-8-8-8-8-8-8-8--8-|
A--4-/-5-5-5--5-5-5--5-5-5-5--5-5-5-5-----3-5--8--8-8--8-8--8-8-8-8-8-8-8-8--8-|
E--2-/-3-3-3--3-3-3--3-3-3-3--3-3-3-3--3-5-----6--6-6--6-6--6-6-6-6-6-6-6-6--6-|

E------------1--1-1-1--1-1-1-1--1-1-1-1------------------------------------------|
B------------1--1-1-1--1-1-1-1--1-1-1-1------------------------------------------|
G------------2--2-2-2--2-2-2-2--2-2-2-2------------------------------------------|
D------------3--3-3-3--3-3-3-3--3-3-3-3------------7--7-7-7--7-7-7-7--7-7-7-7-7--|
A------6-8-----------------------------------1-3---7--7-7-7--7-7-7-7--7-7-7-7-7--|


Important: The song above is NOT stored on the Chordie server. The original song is hosted at www.guitaretab.com. Chordie works as a search engine and provides on-the-fly formatting. Chordie does not index songs against artists/composers will. To remove this song please click here.

This song is displayed as text-only. Transposing and tuning is only available for chordpro-songs.

Login - add to songbook

Rating click stars to rate

Layout
Accuracy

SHARE PAGE  

You need to log in to post comments