eToCache5 = ""; ?> Lucky Man by Emerson Lake & Palmer - guitar chords, guitar tabs and lyrics - chordie
-------------------------------------------------------------------------------

-------------------------------------------------------------------------------
--------------------
--------------------

 GGadd2DD
e|-------3-----|-------5-----|-------5-----|-------5-----|
B|---3-----3---|---3-----3---|---3-----3---|---3-----3---|
G|-----4-----4-|-----4-----4-|-----2-----2-|-----2-----2-|
D|-5-----------|-5-----------|-0-----------|-0-----------|
A|-------------|-------------|-------------|-------------|
E|-------------|-------------|-------------|-------------|


Guitar 2:
 GG(6DD
e|-------------|---3-------3-|-------------|-2-3-2-------|
B|-----------3-|-------------|---------3---|-------3-----|
G|---------0---|--------(0)--|-----------2-|---------2---|
D|-------------|-0---0h2-----|------(0)----|-----------0-|
A|-------------|-------------|-------------|-------------|
E|-3-----------|-------------|-2-----------|-------------|
-------

Chorus: (strums and rhythm approximated)
-------


Guitar 1:
 AmEmD
e|-0-----------|-0------------|-2----------|-------------|
B|-1-----------|-0------------|-3----------|-------------|
G|-2-----------|-0------------|-2----------|-------------|
D|-2-----------|-2------------|-0----------|-------------|
A|-0-----------|-2------------|------------|-------------|
E|-------------|-0------------|------------|-------------|


(second time and ends on this D)----|
Guitar 2: V
 AmEmDD4DD2DD4DD2
e|-0--00-0--00-|-0--00-0--00-|-2-22-2--3-2|-0-2--22--3-2-0-|
B|-1--11-1--11-|-0--00-0--00-|-3-33-3--3-3|-3-3--33--3-3-3-|
G|-2--22-2--22-|-0--00-0--00-|-2-22-2--2-2|-2-2--22--2-2-2-|
D|-2--22-2--22-|-2--22-2--22-|-0-00-0--0-0|-0-0--00--0-0-0-|
A|-0--00-0--00-|-2--22-2--22-|------------|----------------|
E|-------------|-0--00-0--00-|------------|----------------|
-------

Solo 1:
-------


Guitar 1: play this 4x and play chorus part
 GGadd2DDsus4D
e|-------3-----|-------5-----|-------2----|-3-----2------|
B|---3-----3---|---3-----3---|---(3)-3----|-3-----3------|
G|-----4-----4-|-----4-----4-|---(2)-2----|-2-----2------|
D|-5-----------|-5-----------|-0-(0)-0----|-0-----0------|
A|-------------|-------------|------------|--------------|
E|-------------|-------------|------------|--------------|


Guitar 2- strum verse and chorus chords

Guitar 3:
 GDGD
e|------------------------------------|
B|------------------------------------|
G|--------------------------7--7h9p7--|
D|-------------------5--7/9-----------|
A|---------5-5h7-5--------------------|
E|-3---5/7----------------------------|


 GDGD
e|-----------10----14b15r14b15b14------------10-------------|
B|--10-10h12----------------------10---10h12----8-7-8-7-----|
G|--------------------------------------------------------7-|
D|----------------------------------------------------------|
A|----------------------------------------------------------|
E|----------------------------------------------------------|

 AmEmDAmEmD
e|----------------------------------------------------------|
B|----------------------------------------------------------|
G|--------------------------------2-------------------------|
D|--------2----------0----------2-----------0---------------|
A|-0-2-3----------/2-----0-2-3------------2-----------------|
E|----------0-2-3-------------------0-2-3-------------------|
--------

Verse 3: Guitar 2 is still the sane
--------


Guitar 1: (last time right before chorus don't strum D5)
 GGadd2DD5
e|-------3-----|-------5-----|------------|-5------------|
B|---3-----3---|---3-----3---|------------|-3------------|
G|-----4-----4-|-----4-----4-|------------|-2------------|
D|-5-----------|-5-----------|-0----------|-0------------|
A|-------------|-------------|------------|--------------|
E|-------------|-------------|------------|--------------|
--------------------

Chords to Whole Song:
--------------------


Play intro twice

Verse 1:
 GD
 He had white horses
 GD
 And ladies by the score
 GD
 All were dressed in satin
 GD
 And waiting by the door

Chorus:
 AmEmDDsus4DDsus2DDsus4DDsus2
 Oooh, What a lucky man he was                                  
 AmEmDDsus4DDsus2D
 Oooh, What a lucky man he was                   

Play solo

Verse 2:
 GD
 Lightless and feathers
 GD
 They made up his bed
 GD
 A gold covered mattress
 GD
 On which he was laid

Play chorus

Verse 3:
 GD
 He went to fight wars
 GD
 For his country and his king
 GD
 Of his honor and his glory
 GD
 The people would sing

Play chorus

Verse 4:
 GD
 A bullet had found him
 GD
 His blood ran as he died
 GD
 No money could save him
 GD
 So he laid down and he died

End with a synthesizer solo with verse and chorus chords
Then stop playing guitar and just finish with synthesizer and drums


Corrected by kaylorsong. View original
Am D D2 D4 D5 Dsus2 Dsus4 Em G Gadd2
variations - click chord images
Transpose chords:
Tuning:
Cool service:
View: Size:
A  A  A
Rating:
Layout:
  • Currently 2.3/5 Stars.
  • 1
  • 2
  • 3
  • 4
  • 5
 
Accuracy:
  • Currently 2.6/5 Stars.
  • 1
  • 2
  • 3
  • 4
  • 5
 
click stars to rate
Chordie recommends:
Check out these online guitar lessons
Songbook:
Login to add this song to your songbook
Support the artist
Preview/buy this song
MSN Music
Why this non-profit ad?

 
login to add comments/video/corrections

All1Song (report video to admin):
Acoustic collaboration between friends with a Martin HD28VR and Taylor 12 string
ERROR: If you can see this, then YouTube is down or you don't have Flash installed.
walterbl (report comment to admin):
It's "White Lace and Feathers"


Lightless????
chandler_bing (report comment to admin):
http://www.guitaretab.com/e/emerson-lake-and-palmer/6050.html

not complete lyrics thats crap

217.230.100.13