Chordie logo


Lose Yourself   Eminem



-------------------------------------------------------------------------------
			     Lose Yourself - Eminem
-------------------------------------------------------------------------------
Tabbed by: Chordmonkey


Tuning: Standard

Piano Intro
e|-5---5--3---3--5----6-8-6-5---5------5--3---3--5------|
B|--6------5------6-----------8---6--------5------6-----|
G|---7------5------7----------------7-------5------7----|
D|------------------------------------------------------|
A|------------------------------------------------------|
E|------------------------------------------------------|

e|-10-----10-8--5--6-5-----5-6--9~----------------------|
B|---11----------------8~-------------------------------|
G|-----12-----------------------------------------------|
D|------------------------------------------------------|
A|------------------------------------------------------|
E|------------------------------------------------------|

Guitar Intro (before he starts rapping)
e|------------------------------------------------------|
B|------------------------------------------------------|
G|------------------------------------------------------|
D|------7-7----7-7-7-7--8-8-8-8----8-8--8p5-7-----7-7---|
A|--5-5-5-5--5-5-5-5-5--5-5-5-5-5--5-5--5-5-5--5--5-5---|
E|------------------------------------------------------|

e|------------------------------------------------------|
B|------------------------------------------------------|
G|------------------------------------------------------|
D|--8p5-7--8p5-7----------------------------------------|
A|--5-5-5--5-5-5----------------------------------------|
E|------------------------------------------------------|


Verse
e|-------------------------------------------|
B|-------------------------------------------|
G|-------------------------------------------|
D|-----7-7----7-7-7-7--8-8-8-8----8-8--8p5-7-|
A|-5-5-5-5--5-5-5-5-5--5-5-5-5-5--5-5--5-5-5-|
E|-------------------------------------------|


e|-------------------------------------------|
B|-------------------------------------------|
G|-------------------------------------------|
D|------7-7----7-7-7-7--5-5-5-5--2-2-2-2-----|
A|--5-5-5-5--5-5-5-5-5--5-5-5-5--5-5-5-5-----|
E|-------------------------------------------|


Chorus (piano)
e|-5-6-5-----------------6-8-6-5---5-------------------------|
B|-------6-----------------------8---6--------7---7~--5~-----|
G|---------7~---3~--5~-----------------7~---7---7------------|
D|--------------x---x----------------------------------------|
A|--------------1~--3~---------------------------------------|
E|-----------------------------------------------------------|


A couple of things: the chorus paino part just plays over the verse chords. Also, the 
part is played as the outro aswell.

And this tab is completely correct. Enjoy!

| /  slide up
| \  slide down
| h  hammer-on
| p  pull-off
| ~  vibrato
| +  harmonic
| x  Mute note


Important: The song above is NOT stored on the Chordie server. The original song is hosted at www.guitaretab.com. Chordie works as a search engine and provides on-the-fly formatting. Chordie does not index songs against artists/composers will. To remove this song please click here.

This song is displayed as text-only. Transposing and tuning is only available for chordpro-songs.

Login - add to songbook

Rating click stars to rate

Layout
Accuracy

SHARE PAGE  




You need to log in to post comments