""; ?> This Is Me by Emma Roberts - guitar chords, guitar tabs and lyrics - chordie

This Is Me

Emma Roberts

 BmGDAsus
e|-------5----------3-2-----0----------------|
B|-----3---3----3---------3---3----3---5-3---|
G|---4--------5---5-----2--------------------|
D|-------------------------------2---2-------|
A|-------------------------------------------|
E|-------------------------------------------|


 BmG
 I've always been the kind of girl
 DAsus
 That hid my face
 BmG
 So afraid to tell the world
 DAsus
 What I've got to say
 BmG
 But I have this dream
 DAsus
 Right inside of me
 BmGD
 I'm gonna let it show, it's time
 Asus
 To let you know
 GAsus
 To let you know

e|------------------|
B|------------------|
G|------------------|
D|---5~---7-7-7-7---|
A|---5~---7-7-7-7---|
E|---3~---5-5-5-5---|


Chorus:
 GDAsusBm
e|------------------------------------------------|
B|------------------------------------------------|
G|----------------7-77-77-------------------------|
D|---5-5-5-55-55--7-77-77--7-7-7-77-77--9-99-99---|
A|---5-5-5-55-55--5-55-55--7-7-7-77-77--9-99-99---|
E|---3-3-3-33-33-----------5-5-5-55-55--7-77-77---|


 GDAsusBm
e|-------------------------------------------|
B|-------------------------------------------|
G|----------------7-77-77--------------------|
D|---5-5-5-55-55--7-77-77--7-7-7-77-77-7/9---|
A|---5-5-5-55-55--5-55-55--7-7-7-77-77-7/9---|
E|---3-3-3-33-33-----------5-5-5-55-55-5/7---|


 BmGDAsus
e|---------------------------------------------|
B|---------------------------------------------|
G|---4-4-4-44-44---------7-7-7-77-77-----------|
D|---4-4-4-44-44-5-5-55--7-7-7-77-77--7-7-77---|
A|---2-2-2-22-22-5-5-55--5-5-5-55-55--7-7-77---|
E|---------------3-3-33---------------5-5-55---|


 EmGAsus
e|-------------------------------|
B|-------------------------------|
G|-------------------------------|
D|---2-2-2-2-2-2-2-2-5-5-5-5-7~--|
A|---2-2-2-2-2-2-2-2-5-5-5-5-7~--|
E|---0-0-0-0-0-0-0-0-3-3-3-3-5~--|


 GD
 This is real, this is me
 AsusBm
 I'm exactly where I'm supposed to be, now
 GDAsus
 Gonna let the light, shine on me
 BmG
 Now I've found, who I am
 DAsus
 There's no way to hold it in
 EmGA
 No more hiding who I want to be

This is me

Intro:
 BmGDAsus
e|-------5----------3-2-----0----------------|
B|-----3---3----3---------3---3----3---5-3---|
G|---4--------5---5-----2--------------------|
D|-------------------------------2---2-------|
A|-------------------------------------------|
E|-------------------------------------------|


Verse 2:

 AsusD
eb|---------------|
Bb|---------------|
Gb|-----------7---|
Db|---xx7-7-7-7---|
Ab|---xx7-7-7-5---|
Eb|---xx5-5-5-----|

 BmGDEm
eb|---------------------------|
Bb|---------------------------|
Gb|---4-4--------7-77---------|  x4
Db|---4-4--5-55--7-77--2-22---|
Ab|---2-2--5-55--5-55--2-22---|
Eb|--------3-33--------0-00---|


 BmG
 Do you know what it's like
 DAsus
 To feel so in the dark
 BmG
 To dream about a life
 DAsus
 Where you're the shining star
 BmG
 Even though it seems
 DAsus
 Like it's too far away
 BmG
 I have to believe in myself
 DAsusGAsus
 It's the only way              

Chorus: Same ss before
 GD
 This is real, this is me
 AsusBm
 I'm exactly where I'm supposed to be, now
 GDAsus
 Gonna let the light, shine on me
 BmG
 Now I've found, who I am
 DAsus
 There's no way to hold it in
 EmGA
 No more hiding who I want to be

This is me

Adlib:

e|------------------------------------------------12-----12-|
B|---7-8-10-8-7------7-8-10-12---7-8-10-8-7--8s10----10-----|
G|--------------7-9h-----------------------------------9----|
D|----------------------------------------------------------|
A|----------------------------------------------------------|
E|----------------------------------------------------------|


 GD
 You're the voice I hear inside my head
 AsusBm
 The reason that I'm singing
 GDAsus
 I need to find you, I gotta find you
 BmG
 You're the missing piece I need
 DAsus
 The song inside of me
 EmGAsus
 I need to find you, I gotta find you

 GD
 This is real, this is me
 AsusBm
 I'm exactly where I'm supposed to be, now
 GDAsus
 Gonna let the light, shine on me
 BmG
 Now I've found, who I am
 DAsus
 There's no way to hold it in
 EmGAsus
 No more hiding who I want to be

This is me

(same chords)
You're the missing piece I need
The song inside of me
You're the voice I hear inside my head
The reason that I'm singing
Now I've found, who I am
There's no way to hold it in
No more hiding who I want to be

This is me

-->>pra kay anu "------"...anti_mahina28@yahoo.com-->>comments?



A Asus Bm D Em G
variations - click chord images
Transpose chords:
Tuning:
Cool service:
View: Size:
A  A  A
Rating:
Layout:
  • Currently 3/5 Stars.
  • 1
  • 2
  • 3
  • 4
  • 5
 
Accuracy:
  • Currently 3/5 Stars.
  • 1
  • 2
  • 3
  • 4
  • 5
 
click stars to rate
Chordie recommends:
Check out JamPlay.com for online video guitar lessons
Songbook:
Login to add this song to your songbook
Support the artist
Preview/buy this song
MSN Music
Why this non-profit ad?

 
login to add comments/video/corrections