Compter Sur Moi

Emmanuel Moire

-------------------------------------------------------------------------

-------------------------------------------------------------------------
e|-3-----3-2-----2-0-----0-0-2-3-----3-2-----2-0-----0-0-2--|
B|----3-------2-------0-----------3-------2-------0---------|
G|---4-4-----2-2-----0-0---------4-4-----2-2-----0-0--------|
D|----------------------------------------------------------|
A|-2-------0-------------------2-------0--------------------|
E|-----------------3---------------------------0------------|
e|-3-----3-2-----2-0-----0----------------------------------|
B|----3-------2-------0-------3-----3-----------------------|
G|---4-4-----2-2-----0-0---0-------2------------------------|
D|--------------------------------4-------------------------|
A|-2-------0------------------5-5---------------------------|
E|-----------------3-------3--------------------------------|

 Bm#5A6G6
 1.....2....3
 Bm#5A6Em
     Je veux bien compter sur toi
 Bm#5A6G6
     Plus de 3 baiser voler
 D
Pourquoi pas

 123
 Tu peux bien compter sur moi
La sont tes grains de beauté
Dans ce cas

CHORUS
J'additionne... De voix... Au final...
e|------------------------------------------------------------------------|
B|-3-----2---0-2----2---0-----0---3-----3---2-----2---2-----2---2-----2---|
G|-----0----3-----4--------4---------0---------0---------2---------2------|
D|----2----2-----4-4--4---4-4--4----2-2---2---2-2---2---2-2---2---2-2---2-|
A|---4---------2--------2-----------------------------0---------0---------|
E|-0-----2------------------------0---------0-----------------------------|


mes doigts... Dis moi... Dix fois... Si je...
e|-3----3--2----2-0-------0-----------------------------------------------|
B|---3-------3---------0--------0--3-----3---2-----2-3----3-2--2-3--------|
G|--2-2--2--2-2-----0--------0--------4---------4-------0-----3-----4-4-4-|
D|-0-------0-------2-2--2---2-2--2---4-4---4---4-4-----2-2---2-----4-4----|
A|---------------------------------2---------2-------4-----------2--------|
E|----------------0-------0---------------------------------2-------------|


CHORUS
 Em7add6F#7Bsus2B5
 J'additionne sans les retenues de coeur
 Em7Em6
 De voix
 ADsus4D
 Au final je compte sur mes doigts
 Em
 Dis moi
 BmBsus2
 Dix fois
 Em7add6F#7Bsus2B5
     Si je peux compter sur toi    

VERSE2
 123
 Depuis que je compte sur toi
Les vêtements que javais ôter
Chaques fois

CHORUSx2
J additionne sans les retenues de coeur
De voix
Au final je compte sur mes doigts
Dis moi
Dix fois
Que je peux compter sur 2 coeurs
De voix
Au final je compte sur mes doigts
Dis moi
Dix fois
Que je peux compter sur toi

« OUTRO »
2 couers... Résultat... Dis toi...
e|-1-----1---0-----0--1-----1---0-----0------------------------------|
B|----3---------2--------3---------2------3----3---3-----3----3----3-|
G|---2-2--2----2-2--2---2-2--2----2-2--2-----4--------0---0-------0--|
D|-0------------------0---------------------4-4--4---4-4---4-----2---|
A|-----------4------------------4---------2---------------------4----|
E|-------------------------------------------------3----------0------|

bien compter... ...pour moi
e|-------------------------0--0----------------------------------|
B|-2---2--3-----3-2-----3--0--2--2--2-----2---0-----0------------|
G|----3------4-------4-----0--0--3-----4---------4---------------|
D|---2------4-4-----4-4----2--2--2----4-4--4----4-4--4-----------|
A|--------2-------2--------2--4-----2---------2------------------|
E|-2-----------------------0--0--2-------------------------------|


« OUTRO »
 DmC#m#5DmC#m#5
 2 coeurs : Résultat
Bm GM7omit3
Dis toi qu au final
 Em7add6F#7BmBsus2
   Tu peux bien compter sur moi  
 Em
   Dis toi qu au final
 C#dimF#7Bsus2B5
      Tu es celle qui compte pour moi     

 Em7Em6ADsus4DEmBmBsus2Em7add6F#7B5
 ===================================================================


A A6 B5 Bm Bm#5 Bsus2 C#dim C#m#5 D Dm Dsus4 Em Em6 Em7 F#7 G6
variations - click chord images
Transpose chords:
Tuning:
Cool service:
View: Size:
A  A  A
Rating:
Layout:
  • Currently 3.2/5 Stars.
  • 1
  • 2
  • 3
  • 4
  • 5
 
Accuracy:
  • Currently 2.8/5 Stars.
  • 1
  • 2
  • 3
  • 4
  • 5
 
click stars to rate
Chordie recommends:
Learn how to play guitar at JamPlay.com
Songbook:
Login to add this song to your songbook
Support the artist
Preview/buy this song
MSN Music
Why this non-profit ad?

 
login to add comments/video/corrections