La Ou Je Pars

Emmanuel Moire

-------------------------------------------------------------------------

-------------------------------------------------------------------------

 Bm7Gadd9DAsus2Bm7Gadd9DAsus2
e|-----------------------------------------------------------------------|
B|---3-x---0---(0)x----0-0-0-----3-x---0---(0)x----0-0-0-----------------|
G|---2-x---2----2-x----2-2-2-----2-x---2----2-x----2-2-2-----------------|
D|---4-x---0----4-x----2-2-2-----4-x---0----4-x----2-2-2-----------------|
A|-2----------5------0---------2----------5------0-----------------------|
E|-------3---------------------------3-----------------------------------|


VERSE1
 Bm7Gadd9DAsus2Bm7Gadd9DAsus2
e|-------------------------------------------------------|
B|---3-x---0---(0)x----0-0-0-----3-x---0---(0)x----0-0-0-|
G|---2-x---2----2-x----2-2-2-----2-x---2----2-x----2-2-2-|
D|---4-x---0----4-x----2-2-2-----4-x---0----4-x----2-2-2-|
A|-2----------5------0---------2----------5------0-------|
E|-------3---------------------------3-------------------|


 Bm7Gadd9DAsus2C6sus2
e|-------------------------------------------|             Cadd9 = x32030
B|---3-x---0---(0)x----0-0-0--------------3--|                G6 = 355430
G|---2-x---2----2-x----2-2-2--------2--------|              A/C# = x42200
D|---4-x---0----4-x----2-2-2----0-----0------|
A|-2----------5------0--------3---3-----3----|
E|-------3-----------------------------------|


VERSE1 with lyrics
 Bm7Gadd9DAsus2Bm7Gadd9DAsus2
    J'ai sur moi en peu de terre,   un soleil si jamais j'ai froid
 Bm7Gadd9DAsus2C6sus2
    J'ai aussi de quoi réver, si je ne m'endors pas

VERSE2 (same as before, except last part, which is strummed)
 Bm7Gadd9DAsus2Bm7Gadd9DAsus2
  J'ai sur moi des rires des regards,  de l'oubli pur ce qui fait mal
 Bm7Gadd9DAsus2Cadd9
   J'ai aussi pris un coffret ou ranger mon courage
 A
Pour tout recommencer

CHORUS (strumming)
 BmG6DA/C#Bm
    Là où je pars, je veux du ciel pour un nouveau départ
 G6DA/C#A
Là où je pars        
 BmG6DA/C#Bm
    Là où je pars, la vie est celle d'un nouveau monde à part
 G6DA/C#A
Là où je pars        

INTERLUDE (same as intro)
 Bm7Gadd9DAsus2Bm7Gadd9DAsus2
e|-----------------------------------------------------------------------|
B|---3-x---0---(0)x----0-0-0-----3-x---0---(0)x----0-0-0-----------------|
G|---2-x---2----2-x----2-2-2-----2-x---2----2-x----2-2-2-----------------|
D|---4-x---0----4-x----2-2-2-----4-x---0----4-x----2-2-2-----------------|
A|-2----------5------0---------2----------5------0-----------------------|
E|-------3---------------------------3-----------------------------------|


VERSE3
 Bm7Gadd9DAsus2Bm7Gadd9DAsus2
    J'ai sur moi deux ou trois secrets,   un jardin pour mieux les cacher
 Bm7Gadd9DAsus2Cadd9
    J'ai enfin de quoi aimer   un coeur resté ouvert
 A
Des yeux souvent fermés

CHORUS (strumming)
 BmG6DA/C#Bm
    Là où je pars, je veux du ciel pour un nouveau départ
 G6DA/C#A
Là où je pars        
 BmG6DA/C#Bm
    Là où je pars, la vie est celle d'un nouveau monde à part
 G6DA/C#A
Là où je pars        

BRIDGE (strum the chords)
 BmG6DA/C#A
 J'ai sur moi nos rires, des voix, un endroit ou tout découvrir
 BmG6DA/C#A
 J'ai sur moi l'envie de croire au bonheur, au bonheur   
 BmGDABmGDA
   Là où je pars,         là où je pars,   là où je pars

CHORUS
 BmG6DA/C#Bm
    Là où je pars, je veux du ciel pour un nouveau départ
 G6DA/C#A
Là où je pars, c'est là où je pars        
 BmG6DA/C#A
 J'ai sur moi l'envie de voir, un endroit où tout découvrir
 BmG6DA/C#A
 J'ai sur moi l'envie de croire au bonheur, au bonheur   

OUTRO
 BmG6DA/C#Bm
    Là où je pars la vie est celle d'un nouveau monde à part
 G6DA/C#
     C'est là où je pars 
 BmG6DABm
Où je pars,    la vie est celle d'un nouveau monde à part
 G6DABmG
        D'un nouveau monde à part   
 DABm
       Là où je pars.

=========================================================================
Comment, rate, appreciate!


A A/C# Asus2 Bm Bm7 C6sus2 Cadd9 D G G6 Gadd9
variations - click chord images
Transpose chords:
Tuning:
Cool service:
View: Size:
A  A  A
Rating:
Layout:
  • Currently 0/5 Stars.
  • 1
  • 2
  • 3
  • 4
  • 5
 
Accuracy:
  • Currently 3/5 Stars.
  • 1
  • 2
  • 3
  • 4
  • 5
 
click stars to rate
Chordie recommends:
Learn how to play guitar at JamPlay.com
Songbook:
Login to add this song to your songbook
Support the artist
Preview/buy this song
MSN Music
Why this non-profit ad?

 
login to add comments/video/corrections