Chordie logo

Tales From The Burg   Emmure



ok this is a fairly easy song to learn.

(0:00-0:08)
C |--| |--| |----|
G |--| |--| |----|
D#|--| |--| |----|
A#|0~| |0~| |----|
F |0~| |0~| |3210|
A#|0~| |0~| |3210|
             ...

Verse(these are the chords listen for rythem)
C |--------------------------------------------------|
G |--------------------------------------------------|
D#|7--------------------------------5----------------|
A#|x-(listen for # of times played)-x--(listen)------|
F |5--------------------------------3----------3210--|
A#|--------------------------------------------3210--|
                                               ...

(listen for the rythem and times played)
C |--------------|
G |--------------|
D#|7---10---12---|
A#|x---x----x----|
F |5---8----10---|
A#|---0----0-----|
      .    .

verse cont.(listen for rythem)
C |-----------------------------------------------------------------|
G |-----------------------------------------------------------------|
D#|-----------------------------------------------------------------|
A#|-----------------------------------------------------------------|
F |-5-5-5-5-5(listen for rythem)--3-3-3-3-3(listen for rythem)-3210-|
A#|0-----------------------------0-----------------------------3210-|
   .                             .                             ...
C |------------------------------------------------------------------|
G |------------------------------------------------------------------|
D#|-------------------------------10-----------------------12--------|
A#|-------------------------------x--(listen for rythem)---x---------|(listen)
F |-5-5-5-5-5(listen for rythem)--8------------------------10--------|
A#|0-----------------------------0------------------------0----------|
   .                             .                        .
Break Type thing(listen for rythem)
C |-------------------------------|
G |-------------------------------|
D#|-------------------------------|
A#|3210-3210-----3210-3210--------|(x2 but second time no pinch harmonic)
F |3210-3210-00--3210-3210-----4*-|
A#|3210-3210-00--3210-3210-3210---|
   ...  ...      ...  ...

C |--------------------------------------------------|
G |--------------------------------------------------|
D#|7--------------------------------5----------------|
A#|x-(listen for # of times played)-x--(listen)------|
F |5--------------------------------3----------3210--|
A#|--------------------------------------------3210--|
                                               ...

(listen for the rythem and times played)
C |--------------|
G |--------------|
D#|7---10---12---|
A#|x---x----x----|
F |5---8----10---|
A#|---0----0-----|
      .    .

*A variation of the break thingy is played right here just listen)

Pre-Breakdown
C |-----
G |-----
D#|-----
A#|--0~-    (pickscrape)
F |--0~-
A#|0-0~-
   .
C |-----
G |-----
D#|-----
A#|--0~-
F |--0~-
A#|0-0~-
   .

BREAK(listen for rythem)
C |------------------|
G |--1616---16161616-|
D#|--1919---19191919-|
A#|------------------|(x awhile)
F |------------------|
A#|0------0----------|
   .      .
C |------------------|
G |--66----6666------|
D#|--99----9999------|
A#|------------------|(x awhile)
F |------------------|
A#|0------0----------|
   .      .

Post Break(listen for rythem)
C |----------|
G |----------|
D#|----------|

A#|--------0-|
F |0-----0-0-|
A#|0-----0-0-|
   .     . .

C |----------|
G |----16----|(once with right side 2nd with left side listen to recording)
D#|----19----|
A#|----------|
F |0---------|
A#|0---------|
   .
C |------------------|
G |------------------|
D#|------------------|
A#|------------------|
F |0-----0-0--0-0-00-|
A#|0-----0-0--0-0-00-|
   .     . .  . . ..


Verse and break thingy again

then variation of the break thingy

C |----------|
G |----------|
D#|----------|
A#|--------0-|
F |0-----0-0-|
A#|0-----0-0-|
   .     . .
now just listen to the end break(it just differs from these 2 finger shapes)

C |---------|
G |---------|
D#|---------|
A#|---------|
F |0-----0--|
A#|0-----1--|



Important: The song above is NOT stored on the Chordie server. The original song is hosted at www.guitaretab.com. Chordie works as a search engine and provides on-the-fly formatting. Chordie does not index songs against artists/composers will. To remove this song please click here.

This song is displayed as text-only. Transposing and tuning is only available for chordpro-songs.

Login - add to songbook

Rating click stars to rate

Layout
Accuracy

SHARE PAGE  



You need to log in to post comments