Te Vi En Un Tren

Verdes Enanitos

e--5----5h7-5-3-2--------|--5----10h12-10-8-7~~--|---------|----------|

B----7~-----------3h5~~--|----7~-----------------|---------|----------|
G------------------------|-----------------------|---------|----------|
D------------------------|-----------------------|--2s7~~--|--2s10~~--|
A------------------------|-----------------------|--2s7~~--|--2s10~~--|
E------------------------|-----------------------|---------|----------|
e------------|-------------|
B--5s10------|--5s13-------|
G--4s9-------|--4s12-------|
D-------7~~--|-------10~~--|
A-------7~~--|-------10~~--|
E------------|-------------|
-----------------------------------------------------------------------

 GC
e----------------------------------------|
B-----------15~~--13-12------------------|
G--12----12-------------12-12h14~-12~~---|  X 2
D-----12---------------------------------|
A----------------------------------------|
E----------------------------------------|


 EmBm
Yo te vi en un tren
 CG
preocupada de más
 A
quise ayudarte
D (Riff 1)
pero ya no estabas más.

 EmBm
Me colgué del vagón
 CG
que ya empezaba a correr,
A D (Riff 2)
entusiasmado como la primera vez.

Coro 1:
(Riff 3)
 EmA
Y al fin te encontré  
(Riff 4)
 GC
y al fin te encontre    
 AD
y no supe ni siquiera decir hola

Intro (X1)

 EmBm
Intenté compensar
 CG
preguntarte la edad
 A
cómo te llamabas
D (Riff 1)
en qué estación pensabas bajar.

 EmBm
Y no supe que decir
 CG
me engañaba al hablar
A D (Riff 2)
alucinado sin ninguna razón.

Coro 2:
(Riff 5)
 EmA
y yo te vi en un tren  
(Riff 6)
 GC
yo te vi en un tren  
 AD
y no supe ni siquiera decir hola

Solo:
 EmAEmCDEmAEmCDEm
e---------------------------------------------------------------------------------------------|
B-8---8---8--8---8---8--8---8---8---8--8~-------8----8----8--8---8---8--8----8----8--8~-7~----|
G---7---7------9---9------7---7---7-------9-11~---10---10------9---9------10---10----------9~-|
D---------------------------------------------------------------------------------------------|
A---------------------------------------------------------------------------------------------|
E---------------------------------------------------------------------------------------------|


Coro 2 (X1)

Riff 7:
 GCAC
e----------------------------------------------------------------------------------------|
B-----------15~~--13-12------------------------------------------------------------------|
G--12----12-------------12-12h14~-12~~---12----12-14~--12-12-12-14-16-17-12~~---12----12-|
D-----12------------------------------------12-------------------------------------12----|
A----------------------------------------------------------------------------------------|
E----------------------------------------------------------------------------------------|


Puente:
 EmA
Yo te vi en un tren, yo te vi en un tre-e-en!
 EmA
Yo te vi en un tren, yo te vi en un tren yo te vi en un tre-e-en!
 EmA
Yo te vi en un tren, yo te vi en un tren yo te vi en un tre-e-en!
 EmA
Yo te vi en un tren, yo te vi en un tren yo te vi en un tre-e-en!

Outro:

e--------------9----9-10~-----9-10~----9-10-10~~---x-0~~----|
B--10---10-10~---10--------10-------10-------------x-2~~----|
G-----9--------------------------------------------3-2~~----|
D--------------------------------------------------2-2~~----|
A--------------------------------------------------2-0~~----|
E--------------------------------------------------x-x------|


Tabbed by: Ricky Rodriguez

Questions, comments or concerns @: ric_rod7@hotmail.com


A Bm C D Em G
variations - click chord images
Transpose chords:
Tuning:
Cool service:
View: Size:
A  A  A
Rating:
Layout:
  • Currently 3.3/5 Stars.
  • 1
  • 2
  • 3
  • 4
  • 5
 
Accuracy:
  • Currently 3/5 Stars.
  • 1
  • 2
  • 3
  • 4
  • 5
 
click stars to rate
Chordie recommends:
Learn how to play guitar at JamPlay.com
Songbook:
Login to add this song to your songbook
Support the artist
Preview/buy this song
MSN Music
Why this non-profit ad?

 
login to add comments/video/corrections