Guitar Tabs, Chords and Lyrics


Baby Baby Baby   Endeverafter



-------------------------------------------------------------------------------
			     Baby Baby Baby - EndeverafteR
-------------------------------------------------------------------------------
Tabbed by: Venomouskiss320
Email: Venomouskiss320@yahoo.com

Tuning: Dropped D (DADGBe)
(4x) (Intro-Chorus)
e|---------------------------------------------------------------------------|
B|---------------------------------------------------------------------------|
G|----------5-------7-------------------------4h5p4--------------------------|
D|----------5-------7-------------------------5-5-5--------------------------|
A|----7-5-7---7-5-7---7-5-7---3-0-3--7--5-3-5--------------------------------|
D|----7-5-7---7-5-7---7-5-7---3-0-3--7--5-3-5--------------------------------|
Sorry,cant tab out the solo yet (verse)
e|---------------------------------------------------------------------------|
B|---------------------------------------------------------------------------|
G|---------------------------------------------------------------------------|
D|---------------------------------------------------------------------------|
A|----7~~~~----3~~~~~~--7~~~~~~---3~~~~~~~~----------------------------------|
D|----7~~~~----3~~~~~~--7~~~~~~---3~~~~~~~~----------------------------------|
(2x)
e|---------------------------------------------------------------------------|
B|---------------------------------------------------------------------------|
G|---------------------------------------------------------------------------|
D|---------------------------------------------------------------------------|
A|----7-7-7-7-7-7-7-5-7-3-3-3-3-3-3-3-0-3------------------------------------|
D|----7-7-7-7-7-7-7-5-7-3-3-3-3-3-3-3-0-3------------------------------------|

e|---------------------------------------------------------------------------|
B|---------------------------------------------------------------------------|
G|--------5-7----------------------------------------------------------------|
D|--------5-7----------------------------------------------------------------|
A|----7-7-----5-7--3-3-3~~~~~~~~~--------------------------------------------|
D|----7-7-----5-7--3-3-3~~~~~~~~~--------------------------------------------|
(chorus goes here)
(after that theres a verse)
(Solo)
then some ending,go crazy XD



Important: The song above is NOT stored on the Chordie server. The original song is hosted at www.guitaretab.com. Chordie works as a search engine and provides on-the-fly formatting. Chordie does not index songs against artists/composers will. To remove this song please click here.

This song is displayed as text-only. Transposing and tuning is only available for chordpro-songs.

Login - add to songbook

Rating click stars to rate

Layout
Accuracy

SHARE PAGE  




You need to log in to post comments