eToCache5 = ""; ?> The Good The Bad And The Ugly by Ennio Morricone - guitar chords, guitar tabs and lyrics - chordie

The Good The Bad And The Ugly

Ennio Morricone

 EmAEmD
||-0------------------|--------------|-0----------------|-----2--------|
||-0-5-0-5-0----------|--------------|-0-5-0-5-0--------|-----3--------|
||----------------0---|-2------------|---------------0--|-2---2--------|
||--------------------|-----2--------|------------------|--------------|
||--------------------|--------------|------------------|--------------|
||-0------------------|--------------|-0----------------|--------------|


 EmDEmAEm
|-0------------------|--------------|-0----------------|-0-------|----||
|-0-5-0-5-0----------|--------------|-0-5-0-5-0--------|-0-------|----||
|----------------0---|--------------|---------------2--|-0-------|----||
|--------------------|-4-2-0--------|------------------|-2-------|----||
|--------------------|--------------|------------------|-2-------|----||
|-0------------------|--------------|-0----------------|-0-------|----||


 EmDEmDEmD
|-----|---------------|-----|---------------|-----|-----------2---|
|-----|---0----3------|-----|---0----3------|-----|---0---3-----3-|
|-----|-----0--2------|-----|-----0--2------|-----|-----0---4-----|
|-----|-2------0------|-----|-2------0------|-----|-2-------------|
|----2|--------0------|----2|--------0------|----2|---------------|
|-----|---------------|-----|---------------|-----|---------------|


 AB7EmAEmAEmAEmA
|-5-----|-7-----0|3p2p0----5---0|3p2p0----5---0|3p2p0-5-0-3p2p0-5-0|
|-5-----|-7------|---------5----|---------5----|------5---------5--|
|-6-----|-8------|---------6----|---------6----|------6---------6--|
|-7-----|-9------|---------7----|---------7----|------7---------7--|
|-------|--------|---------0----|---------0----|------0---------0--|
|-------|-------0|-------------0|-------------0|---------0--------0|


 CBmAGF#mEmDCBbB7
|3-2-0-2-0---0-----------|------------------------|-1---|-2---|----||
|----------3---3-2-3-2-0-|2-----------------------|-3---|-0---|----||
|------------------------|--4-2-4-2-0-2-0---0-----|-3---|-2---|----||
|------------------------|----------------4---4-2-|-3---|-1---|----||
|------------------------|------------------------|-1---|-2---|----||
|------------------------|------------------------|-----|-----|----||


Note during the second time around do not repeat the first part but replace with

























A B7 Bb Bm C D Em F#m G
variations - click chord images
Transpose chords:
Tuning:
Cool service:
View: Size:
A  A  A
Rating:
Layout:
  • Currently 2.6/5 Stars.
  • 1
  • 2
  • 3
  • 4
  • 5
 
Accuracy:
  • Currently 3.1/5 Stars.
  • 1
  • 2
  • 3
  • 4
  • 5
 
click stars to rate
Chordie recommends:
Get acoustic guitar lessons and electric guitar lessons at JamPlay.com
Songbook:
Login to add this song to your songbook
Support the artist
Preview/buy this song
MSN Music
Why this non-profit ad?

 
login to add comments/video/corrections