"yes"; ?> Waqt by Entity Paradigm - guitar chords, guitar tabs and lyrics - chordie
e|-----16-15-----15-13------13---|  e|----11-10-----10-8----8----------|

B|-13---------13---------13------| B|-8---------8--------8------------|
G|-------------------------------| G|---------------------------------|
D|-------------------------------| D|---------------------------------|
A|-------------------------------| A|---------------------------------|
E|-------------------------------| E|---------------------------------|
e|--------------------------------------------|
B|--------------------------------------------|
G|-7/8--7--5--3/5--3---3--3--3--3--5/7--------|
D|-------------------5------------------------|
A|--------------------------------------------|
E|--------------------------------------------|
e|--------------------------------------------|
B|----------------------------6/8--6h8p6--8---|
G|-7/8--7--5--3/5--3----3--3------------------|
D|--------------------5-----------------------|
A|--------------------------------------------|
E|--------------------------------------------|
e|-----------------------------------------------------------------------|
B|-------------------------------7---------------------------------------|
G|-------------------------8--6-----8--6----6--8----6--6--6-----6--------|
D|----5-----3-----3/5---6-----------------6-------6----------6-----------|
A|-3-----3-----3---------------------------------------------------5--3--|
E|-----------------------------------------------------------------------|x3

 C1C2C3C4
e|----------------------------|
B|----------------------------|
G|--5-------------8-----------|
D|--5------6------8------8----|
A|--3------6------6------8----|
E|---------4-------------6----|


 C1C2C3C4
 Ek ehsaas hai ke soocha na tha waqt dhalta raha mein chalta raha

(play on clean guitar and lsn de song for struning pattern)

Then...

 C1C3C4C1C2C3C4
 to dil mera rooye to kia waqt iraadun ko tore to kia

(play on distorted guitar n lsn de song for struming pattern)

 C1C2C3C4
 ho ho ho ho ho ho ho ho hooo

(play on distorted guitar n strum once)

Play Fig 3 in the rap n repeat for verse n chorus then...

 C1C2C3C4C1C2C3C4
 is dhool ke khumar se nashe mein rahe gire jin diyun pe parde jale na bujhe  x2

then cumz the flute part:

e|-9-11/13-11-6-7/9-6-4---14/16-11-16-19-17----|
B|---------------------------------------------|
G|---------------------------------------------|
D|---------------------------------------------|
A|---------------------------------------------|
E|---------------------------------------------|


repeat the chorus(ho ho ho)

then cumz:

Fig 5(played till de end):

 AC1AC2AC3AC4
e|----------------------------|
B|----------------------------|
G|-7------------10------------|
D|-7-----8------10------10----|
A|-5-----8------8-------10----|
E|-------6--------------8-----|


 AC1AC2AC3AC4
 Hun hun hun hun hun hun hun hun hun hun hun

contineu this till end...

outro:

e|--------------------------------------------------------|
B|-3/10-10-10-10-11--------------------5/10-8h10p8--------|
G|------------------10-14/12-10-9h10/5--------------------|
D|--------------------------------------------------------|
A|--------------------------------------------------------|
E|--------------------------------------------------------|
e|--------------------------------------------------------|
B|-3/10-10-10-10-11----11/13--------------5/10-8h10p8-10--|
G|------------------10-------14-12-9h10/5-----------------|
D|--------------------------------------------------------|
A|--------------------------------------------------------|
E|--------------------------------------------------------|


In de end repeat de flute part once..

enjoy n plzz rate!


C2 C3 C4
variations - click chord images
Transpose chords:
Tuning:
Cool service:
View: Size:
A  A  A
Rating:
Layout:
  • Currently 3.3/5 Stars.
  • 1
  • 2
  • 3
  • 4
  • 5
 
Accuracy:
  • Currently 3/5 Stars.
  • 1
  • 2
  • 3
  • 4
  • 5
 
click stars to rate
Chordie recommends:
Check out these online guitar lessons
Songbook:
Login to add this song to your songbook
Support the artist
Preview/buy this song
MSN Music
Why this non-profit ad?

 
login to add comments/video/corrections