Alapaap

Eraserheads

e|-------------------------------------------

b|-------------------------------------------
g|-------------------------------------------(4x)
d|--------4-4h5-4----------------------------
a|------5---------5--------------------------
e|--3-3--------------------------------------

 GM7CM7
e|-----------------------|-----------------------|
b|-----------------------|-----------------------|
g|-----------------------|--------4-4h5-4--------|
d|--------4-4h5-4----(8x)|------5---------5--(4x)|
a|------5---------5------|--3-3------------------|
e|--3-3------------------|-----------------------|

May isang... Haya at...

 GM7FM7
e|-----------------------|-----------------------|
b|-----------------------|-----------------------|
g|-----------------------|-----------------------|
d|--------4-4h5-4----(8x)|-----------------------|
a|------5---------5------|--3s8-(let ring)-------|
e|--3-3------------------|-----------------------|

paap... haa....

Guitar 2
 GM7CM7
e|--3-------3------------|--0-------0------------|
b|--4---4-----4---4------|--0---0-----0---0------|
g|--5-5---5-----5----(8x)|--0-0---0-----0----(4x)|
d|--6--------------------|--2--------------------|
a|-----------------------|--3--------------------|
e|-----------------------|-----------------------|

May isang... Haya at...

 GM7FM7
e|--3-------3------------|--0--------------------|
b|--4---4-----4---4------|--1--------------------|
g|--5-5---5-----5----(8x)|--2-(let ring)---------|
d|--6--------------------|--3--------------------|
a|-----------------------|-----------------------|
e|-----------------------|-----------------------|

paap... haa....

Verse 2
 GAm7Bm7C
e|--3--|--0--|--2--|--0--|
b|--3--|--1--|--3--|--1--|
g|--0--|--0--|--2--|--0--|(4X)
d|--0--|--2--|--4--|--2--|
a|--2--|--0--|--2--|--3--|
e|--3--|-----|-----|-----|


Chorus 1
 GAm7Bm7C
e|--3--|--0--|--2--|--0--|
b|--3--|--1--|--3--|--1--|
g|--0--|--0--|--2--|--0--|(2X)
d|--0--|--2--|--4--|--2--|
a|--2--|--0--|--2--|--3--|
e|--3--|-----|-----|-----|

 DC
e|--2--|--0-----------|
b|--3--|--1-----------|
g|--2--|--0-(let ring)|
d|--0--|--2-----------|
a|-----|--3-----------|
e|-----|--------------|


Verse 3
 GAm7Bm7C
e|--3--|--0--|--2--|--0--|
b|--3--|--1--|--3--|--1--|
g|--0--|--0--|--2--|--0--|(2x)
d|--0--|--2--|--4--|--2--|
a|--2--|--0--|--2--|--3--|
e|--3--|-----|-----|-----|


Chorus 2
 GAm7Bm7C
e|--3--|--0--|--2--|--0--|
b|--3--|--1--|--3--|--1--|
g|--0--|--0--|--2--|--0--|(2X)
d|--0--|--2--|--4--|--2--|
a|--2--|--0--|--2--|--3--|
e|--3--|-----|-----|-----|

 DC
e|--2--|--0-----------|
b|--3--|--1-----------|
g|--2--|--0-(let ring)|
d|--0--|--2-----------|
a|-----|--3-----------|
e|-----|--------------|


Bridge

e|--1--|--3--|--0--|--0--|--1--|--3--|--0--|--4--|--2--|-----|
b|--1--|--3--|--1--|--1--|--1--|--3--|--2--|--5--|--3--|-----|
g|--2--|--0--|--0--|--2--|--2--|--0--|--2--|--6--|--2--|--1--|
d|--3--|--0--|--2--|--2--|--3--|--0--|--2--|--6--|--0--|--2--|
a|--3--|--2--|--3--|--0--|--3--|--2--|--0--|--4--|-----|--2--|
e|--1--|--3--|-----|-----|--1--|--3--|-----|-----|-----|--0--|

pap-pa-rap pap...

e|--0--|--4--|--2--|--0--|--0--|--2--|--0--|--2--|--0--|--4--|--2--|
b|--2--|--5--|--3--|--0--|--1--|--3--|--1--|--3--|--1--|--5--|--3--|
g|--2--|--6--|--2--|--1--|--0--|--4--|--0--|--4--|--0--|--6--|--2--|
d|--2--|--6--|--0--|--2--|--2--|--4--|--2--|--4--|--2--|--6--|--0--|
a|--0--|--4--|-----|--2--|--3--|--2--|--3--|--2--|--3--|--4--|-----|
e|-----|-----|-----|--0--|-----|-----|-----|-----|-----|-----|-----|

pa pa pa ... La la la...

Verse 4
 GAm7Bm7C
e|--3--|--0--|--2--|--0--|
b|--3--|--1--|--3--|--1--|
g|--0--|--0--|--2--|--0--|(4x)
d|--0--|--2--|--4--|--2--|
a|--2--|--0--|--2--|--3--|
e|--3--|-----|-----|-----|


Chorus 3
 GAm7Bm7C
e|--3--|--0--|--2--|--0--|
b|--3--|--1--|--3--|--1--|
g|--0--|--0--|--2--|--0--|(2X)
d|--0--|--2--|--4--|--2--|
a|--2--|--0--|--2--|--3--|
e|--3--|-----|-----|-----|

 DC
e|--2--|--0--|
b|--3--|--1--|
g|--2--|--0--|(8x then break)
d|--0--|--2--|
a|-----|--3--|
e|-----|-----|


Outro
e|------------------------|--3-----------|
b|------------------------|--4-----------|    |-----  -----  |\    |
g|--------------------(4x)|--5—(let ring)|    |         |    | \   |
d|--------4-4h5-4---------|--6-----------|    |---      |    |  \  |
a|------5---------5-------|--------------|    |         |    |   \ |
e|--3-3-------------------|--------------|    |       -----  |    \|  


That's all for any corrections and suggestion just e-mail me
Hope like this one I tabbed for those band in surigao that needs a guitarist,
lead guitarist or vocalist I am available, just mail me...

Hi!!! To my bolong na friends tatay, ods, cabal, avila,chuckie,kiwitt


Am7 Bm7 C Cm7 D Fm7 G Gm7
variations - click chord images
Transpose chords:
Tuning:
Cool service:
View: Size:
A  A  A
Rating:
Layout:
  • Currently 3.1/5 Stars.
  • 1
  • 2
  • 3
  • 4
  • 5
 
Accuracy:
  • Currently 3.7/5 Stars.
  • 1
  • 2
  • 3
  • 4
  • 5
 
click stars to rate
Chordie recommends:
Learn to play guitar with video-based, online guitar lessons at JamPlay.com
Songbook:
Login to add this song to your songbook
Support the artist
Preview/buy this song
MSN Music
Why this non-profit ad?

 
login to add comments/video/corrections