Chordie logo

Pare Ko   Eraserheads



PARE KO BY ERASERHEADS
Tabbed by: Ralph_Rakizta
Email: fast_break20@yahoo.com.ph

ADLIB:

2min:12sec

e|----15-----------12-15-15---15/17-17--19-17----15-17--12-15--10-12-7-------|
B|----------12-15------------------------------------------------------------|
G|---------------------------------------------------------------------------|
D|---------------------------------------------------------------------------|
A|---------------------------------------------------------------------------|
E|---------------------------------------------------------------------------|

e|---------------------------------------------------------------------------|
B|---10-8----8-8---8-10b12----8-10-8---------8-10----------15----------------|
G|---------9-----9----------9--------9-7---9--------12h14-----12h14----------|
D|---------------------------------------------------------------------------|
A|---------------------------------------------------------------------------|
E|---------------------------------------------------------------------------|

e|---------------------------------------------------------------------------|
B|---15b17—15b17-15----------------------------------------------------------|
G|---------------------------------------------------------------------------|
D|---------------------------------------------------------------------------|
A|---------------------------------------------------------------------------|
E|---------------------------------------------------------------------------|



| /  slide up
| \  slide down
| h  hammer-on
| p  pull-off
| ~  vibrato
| +  harmonic
| x  Mute note


Important: The song above is NOT stored on the Chordie server. The original song is hosted at www.guitaretab.com. Chordie works as a search engine and provides on-the-fly formatting. Chordie does not index songs against artists/composers will. To remove this song please click here.

This song is displayed as text-only. Transposing and tuning is only available for chordpro-songs.

Login - add to songbook

Rating click stars to rate

Layout
Accuracy

SHARE PAGE  

You need to log in to post comments