Guitar Tabs, Chords and Lyrics


Eyesight To The Blind   Eric Clapton



the movie version of "Eyesight to the Blind"
by The Who with Eric Clapton

SYMBOL KEY:
h = hammer on
p = pull off
/ = slide up
\ = slide down


MAIN RIFF:

    1 . . . 2 . . . 3 . . . 4 . . .
E|----------------------------------|
B|----------------------------------|
G|*--------------------------------*|
D|*h7-----7-----------------------5*|
A|----------0-----------0h3h5/7-----|
E|----------------------------------|

/---------------------------------------------------------------------------\
|note: the hammer on in the beginning is from the fifth to the to the       |
|      seventh fret. so, just to be clear, hammer on from the fifth at the  |
|      end of the riff to the seventh when repeating.                       |
\---------------------------------------------------------------------------/


TRANSITION RIFF:

    1 . . . 2 . . . 3 . . . 4 . . .
E|----------------------------------|
B|----------------------------------|
G|----------------------------------|
D|-h7-----7---------------------7---|
A|----------0-----------0h3h5/7-----|
E|----------------------------------|


FILL RIFF:

    1 . . . 2 . . . 3 . . . 4 . . .   1 . . . 2 . . . 3 . . . 4 . . .
E|----------------------------------|---------------------------------|
B|----------------------------------|-----------5h7-------7--\5---3---|
G|------------7/9-------7--\5---7---|5h7------------------------------|
D|-5--------------------------------|---------------------------------|
A|----------------------------------|---------------------------------|
E|----------------------------------|---------------------------------|

    1 . . . 2 . . . 3 . . . 4 . . .   1 . . . 2 . . . 3 . . . 4 . . .
E|----------------------------------|---------------------------------|
B|-3h5------------------------------|---------------------------------|
G|----------------------------------|---------------------------------|
D|----------------------------------|-------------------------------5-|
A|----------------------------------|---------------------0h3h5/7-----|
E|----------------------------------|---------------------------------|

/---------------------------------------------------------------------------\
|note: this is not the exact FILL RIFF. when listening to the track, i      |
|      could not discern any of the playing, so i came up with this. it is  |
|      somewhat similar, however not the real riff, and fits in very well   |
|      with whatever else is going on at the time. you want the real thing, |
|      do it yourself.                                                      |
\---------------------------------------------------------------------------/


CHORDS:

    Am [MAIN RIFF]
you talk about your woman,   i wish you could see mine
    G                      D                      Am   [TRANSITION RIFF]
you talk about your woman,   i wish you could see mine
      G [FILL RIFF]            D                            E     Am
every time she starts to love,   she brings eyesight to the blind

you know her daddy gave her magic, i can tell by the way she walks
you know her daddy gave her magic, i can tell by the way she walks
every time she starts to shake, the dumb begin to talk

she's got the power to heal you, never fear
she has got the power to heal you, never fear
just one word from her lips and the deaf can hear

she's got the power to heal you, never fear
she has got the power to heal you, never fear
just one word from her lips and the deaf can hear


tabbed by: niuguitarman
so there's the jist of it. i hadn't seen any other decent tabs for this version of the 
so i did one myself. if you have any questions, comments, or concerns, contact 
at "mjcp_2006@yahoo.com"
if you have any beef with this tab, just throw it in the comments. i really DO read 


Important: The song above is NOT stored on the Chordie server. The original song is hosted at www.guitaretab.com. Chordie works as a search engine and provides on-the-fly formatting. Chordie does not index songs against artists/composers will. To remove this song please click here.

This song is displayed as text-only. Transposing and tuning is only available for chordpro-songs.

Login - add to songbook

Rating click stars to rate

Layout
Accuracy

SHARE PAGE  




You need to log in to post comments