Chordie logo


Bopepine   Eric Lapointe



-------------------------------------------------------------------------------
			     Bobépine - Éric Lapointe
-------------------------------------------------------------------------------
Tabbed by: Tout-Web
Email: hatedguys@hotmail.com

cest une toune deric lapointe. c mon prof de guitare qui me la montrer.

cest dans le refrain parce que ya pas de guit dans les verse.

e|----------------------------|
B|----------------------------|
G|-2--------------------------|
D|-5--------------------------|
A|-5--------------------------|
E|-3--------------------------|

e|----------------------------|
B|-11--11--11--11--Jouer en --|
G|-10--10--10--10---Croche ---|
D|-9---9---9---9--------------|
A|-10--10--10--10-------------|
E|----------------------------|

e|----------------------------|
B|----------------------------|
G|----------------------------|
D|----------------------------|
A|-----3-4-5-3----------------|
E|-3-6---------6-3------------|

e|----------------------------|
B|-11--11--11--11--Jouer en --|
G|-10--10--10--10---Croche ---|
D|-9---9---9---9--------------|
A|-10--10--10--10-------------|
E|----------------------------|

e|----------------------------|
B|----------------------------|
G|----------------------------|
D|----------------------------|
A|-----3-4-5-3----------------|
E|-3-6---------6-3------------|


REPETER AUTANT DE FOIS QUE VOUS VOULEZ SA :

e|----------------------------|
B|-11--11--11--11--Jouer en --|
G|-10--10--10--10---Croche ---|
D|-9---9---9---9--------------|
A|-10--10--10--10-------------|
E|----------------------------|

e|----------------------------|
B|----------------------------|
G|----------------------------|
D|----------------------------|
A|-----3-4-5-3----------------|
E|-3-6---------6-3------------|

PAS BESOIN DE :

e|----------------------------|
B|----------------------------|
G|-2--------------------------|
D|-5--------------------------|
A|-5--------------------------|
E|-3--------------------------|

CAR LE DERNIER 3 DE :

e|----------------------------|
B|----------------------------|
G|----------------------------|
D|----------------------------|
A|-----3-4-5-3----------------|
E|-3-6---------6-3------------|

LE REMPLACE

| /  slide up
| \  slide down
| h  hammer-on
| p  pull-off
| ~  vibrato
| +  harmonic
| x  Mute note


Important: The song above is NOT stored on the Chordie server. The original song is hosted at www.guitaretab.com. Chordie works as a search engine and provides on-the-fly formatting. Chordie does not index songs against artists/composers will. To remove this song please click here.

This song is displayed as text-only. Transposing and tuning is only available for chordpro-songs.

Login - add to songbook

Rating click stars to rate

Layout
Accuracy

SHARE PAGE  




You need to log in to post comments