Ut Mot Havet

Erik Og Kriss

E||-------------------------|

B||-------------------------|
G||-------------------------|
D||-------------x--x--x-----|
A||--2----2-----x--x--x--5--|
E||--0----0--------------3--|
------------------------|
------------------------|
------------------------|
--x--x------------------|
--x--x--5---------0--2--|
--------2---------------|
-----------------------|
-----------------------|
-----------------------|
-------5---------------|
--3----3---------2--3--|
-----------------------|

 EEEEEEEE
--------------------------|
--------------------------|
--------------------------|
--------------------------|
--5--3--2--3--2--0--------|
--------------------3--2--|


Q E E E E E E
-------------------------|
-------------------------|
-------------------------|
-------------x--x--x-----|
--2----2-----x--x--x--5--|
--0----0--------------3--|


E E Q Q E E
------------------------|
------------------------|
------------------------|
--x--x------------------|
--x--x--5---------0--2--|
--------2---------------|


Q Q Q E E
-----------------------|
-----------------------|
-----------------------|
-------5---------------|
--3----3---------2--3--|
-----------------------|


 EEEEEEEE
--------------------------|
--------------------------|
--------------------------|
--------------------------|
--5--3--2--3--2--0--------|
--------------------3--2--|


Refrengriff (repeter to ganger de to første gangene, så litt fler siste gang)

 BEEEE
-----------------------|
-----------------------|
--9--------9--------9--|
--9--------9-----x--9--|
--7--------7-----x--7--|
-----------------------|


 EEEEEEEE
--------------------------|
--------------------------|
--------9-----------9-----|
-----x--9-----x--x--9--x--|
-----x--7-----x--x--7--x--|
--------------------------|


 BEEEE
-----------------------|
-----------------------|
--8--------8--------8--|
--9--------9-----x--9--|
--6--------6-----x--6--|
-----------------------|


 EEEEEEEE
--------------------------|
--------------------------|
--------8-----------8-----|
-----x--9-----x--x--9--x--|
-----x--6-----x--x--6--x--|
--------------------------|


 BEEEE
-----------------------|
-----------------------|
--7--------7--------7--|
--7--------7-----x--7--|
--5--------5-----x--5--|
-----------------------|


 EEEEEEEE
--------------------------|
--------------------------|
--------7-----------7-----|
-----x--7-----x--x--7--x--|
-----x--5-----x--x--5--x--|
--------------------------|


 BEEEE
-----------------------|
-----------------------|
--6--------6--------6--|
--6--------6-----x--6--|
--4--------4-----x--4--|
-----------------------|


 EEEEEEEE
--------------------------|
--------------------------|
--------6-----------6-----|
-----x--6-----x--x--6--x--|
-----x--4-----x--x--4--x--|
--------------------------|


 BEEEE
-----------------------|
-----------------------|
--9--------9--------9--|
--9--------9-----x--9--|
--7--------7-----x--7--|
-----------------------|


 EEEEEEEE
--------------------------|
--------------------------|
--------9-----------9-----|
-----x--9-----x--x--9--x--|
-----x--7-----x--x--7--x--|
--------------------------|


 BEEEE
-----------------------|
-----------------------|
--8--------8--------8--|
--9--------9-----x--9--|
--6--------6-----x--6--|
-----------------------|


 EEEEEEEE
--------------------------|
--------------------------|
--------8-----------8-----|
-----x--9-----x--x--9--x--|
-----x--6-----x--x--6--x--|
--------------------------|


 BEEEE
-----------------------|
-----------------------|
--7--------7--------7--|
--7--------7-----x--7--|
--5--------5-----x--5--|
-----------------------|


 EEEEEEEE
--------------------------|
--------------------------|
--------7-----------7-----|
-----x--7-----x--x--7--x--|
-----x--5-----x--x--5--x--|
--------------------------|


 BEEEE
-----------------------|
-----------------------|
--6--------6--------6--|
--6--------6-----x--6--|
--4--------4-----x--4--|
-----------------------|


 EEEEEEEE
--------------------------||
--------------------------||
--------6-----------6-----||
-----x--6-----x--x--6--x--||
-----x--4-----x--x--4--x--||
--------------------------||


Duration Legend
---------------

W - whole
H - half
Q - quarter
E - 8th
S - 16th
T - 32nd
X - 64th
. - note dotted
|-n-| - n-tuplets

Tablature Legend
----------------

L - tied note
x - dead note
g - grace note
(n) - ghost note
> - accentuded note
NH - natural harmonic
AH - artificial harmonic
TH - tapped harmonic
SH - semi harmonic
PH - pitch harmonic
h - hammer on
p - pull off
b - bend
br - bendRelease
pb - preBend
pbr - preBendRelease
brb - bendReleaseBend
\n/ - tremolo bar dip
\n - tremolo bar dive
-/n - tremolo bar Release up
/n\ - tremolo bar inverted dip
/n - tremolo bar return
-\n - tremolo bar Release down
S - shift slide
s - legato slide
/ - slide into from below or out of upwards
\ - slide into from above or out of downwards
~ - vibrato
W - wide vibrato
tr - trill
TP - tremolo picking
T - tapping
S - slap
P - pop
< - fade in
^ - brush up
v - brush down


B E
variations - click chord images
Transpose chords:
Tuning:
Cool service:
View: Size:
A  A  A
Rating:
Layout:
  • Currently 3.3/5 Stars.
  • 1
  • 2
  • 3
  • 4
  • 5
 
Accuracy:
  • Currently 2.9/5 Stars.
  • 1
  • 2
  • 3
  • 4
  • 5
 
click stars to rate
Chordie recommends:
Learn how to play guitar at JamPlay.com
Songbook:
Login to add this song to your songbook
Support the artist
Preview/buy this song
MSN Music
Why this non-profit ad?

 
login to add comments/video/corrections