Guitar Tabs, Chords and Lyrics


Solitude   Escaryum









Titre:         Solitude
Groupe:        Escaryum
Album:         ...
Ecrit Par:     Escaryum
Transcrit Par: B.Lamoureux
----------------------------------------------------------------------
encore une fois...j'ai juste ecris les accord pis les notes!!! le rhy
tm es facile a pogner!
----------------------------------------------------------------------

guitare 1


|-2--3--0--2--3-5--------------------------------------------------------|
|-3--3--2--2--3-3--------------------------------------------------------|
|-2--2--2--2--0-0--------------------------------------------------------|
|-0--0--0--0--0-0--------------------------------------------------------|
|-0--0--------x-x--------------------------------------------------------|
|-------------3-3--------------------------------------------------------|


guitare 2


|----5---5---3|------5-------5-------3-------3---|-----------------------|
|---5---5---3-|----5---5---5---5---3---3---3---3-|-----------------------|
|--7---6---4--|---7-7-7-7-6-6-6-6-4-4-4-4-4-4-4-4|-----------------------|
|-0---0---0---|--0-------0-------0-------0-------|-----------------------|
|-------------|----------------------------------|-----------------------|
|-------------|----------------------------------|-----------------------|

|-3--3--3----------------------------------------------------------------|
|-3--3--3----------------------------------------------------------------|
|-0--0--0----------------------------------------------------------------|
|-0--2--2----------------------------------------------------------------|
|-2--3--2----------------------------------------------------------------|
|-3----------------------------------------------------------------------|


Ce fichier a t cre par Tab 1.1



Important: The song above is NOT stored on the Chordie server. The original song is hosted at www.guitaretab.com. Chordie works as a search engine and provides on-the-fly formatting. Chordie does not index songs against artists/composers will. To remove this song please click here.

This song is displayed as text-only. Transposing and tuning is only available for chordpro-songs.

Login - add to songbook

Rating click stars to rate

Layout
Accuracy

SHARE PAGE  




You need to log in to post comments