eToCache5 = ""; ?> On A Train by Eskobar - guitar chords, guitar tabs and lyrics - chordie

On A Train

Eskobar

This is a song wich should be played by
a whole band, so there's no "real" way of
playing it on rythm guitar only...

G5 - 3X0033
C5 - X3X013
 Bb6-113333
Capo on third fret.
Tabs relative to the capo.

Vers riff:
 G5
 e|------------------------------------------|
 B|-3*-0-1-3---3---3---3---3---6---6---6---6-|
 G|----------0---0---0---0---0---0---0---0---|
 D|------------------------------------------|
 A|------------------------------------------|
 E|------------------------------------------|

 C5
 e|---------------------------------|
 B|---5---5---5---5---3---3---3---3-|
 G|-0---0---0---0---0---0---0---0---|
 D|---------------------------------|
 A|---------------------------------|
 E|---------------------------------|


* - Only played the first time.

 G5C5
 I'm on a train, watching this fire
 G5C5
 Just like a plane, it could take us higher
 G5C5
 Wish you were here, with me and this fire
 G5C5
 We'd keep you warm, you'd never feel tired

Chorus riff:
 Bb6C5
 e|---------------------------------------|
 B|-0-1-3---3---3---3---3---1---1---1---1-|
 G|-------0---0---0---0---0---0---0---0---|
 D|---------------------------------------|
 A|---------------------------------------|
 E|---------------------------------------|

 G5
 e|---------------------------------|
 B|---0---0---0---0---0---0---0---0-|
 G|-0---0---0---0---0---0---0---0---|
 D|---------------------------------|
 A|---------------------------------|
 E|---------------------------------| 


 Bb6C5G5
 I'm on a train,   it's insane
 Bb6C5G5
 I'm on a train     

 G5C5
 On a train, watching these skies
 G5C5
 That's where the plane, took us high
 G5C5
 Wish you were here, here, here with me and this fire
 G5C5
 We'd keep you warm, no, no you'd never feel tired, I'm sayin'

 G5
 Be a man, take a stand, show me what you've got in your hand
 C5
 If you wanna be the one, show that girl what you're made of
 G5
 Take it from the start 'til the end, cause you just        don't know where to stand
 C5
 So if you wanna come aboard, I'll be on a

 Bb6C5G5
 Train,    it's insane
 Bb6C5G5
 And the wind sand grains
 Bb6C5G5
 I'm on a train     

 Bb6C5G5Bb6C5G5Bb6C5G5Bb5C5G5
 Bb6C5G5
 I'm on a train,    it's insane
 Bb6C5G5
 And the wind sand grains
 Bb6C5G5
 And all entertainement fails
 Bb6C5G5
 I'm on a train     

Ends with:
 G5
 e|-------------------3-|
 B|---0---0---0---0--3--|
 G|-0---0---0---0---0---|
 D|---------------------|
 A|---------------------|
 E|---------------------|


These lyrics must have been written during
a cocaine trip or something like that...

Bb5 Bb6 C5 G5
variations - click chord images
Transpose chords:
Tuning:
Cool service:
View: Size:
A  A  A
Rating:
Layout:
  • Currently 3.6/5 Stars.
  • 1
  • 2
  • 3
  • 4
  • 5
 
Accuracy:
  • Currently 3.8/5 Stars.
  • 1
  • 2
  • 3
  • 4
  • 5
 
click stars to rate
Chordie recommends:
Learn how to play guitar at JamPlay.com
Songbook:
Login to add this song to your songbook
Support the artist
Preview/buy this song
MSN Music
Why this non-profit ad?

 
login to add comments/video/corrections