Guitar Tabs, Chords and Lyrics


New Disease   Everclear



Song: The New Disease
Band: Everclear
Album: Ten Years Gone: The Best of Everclear 1994-2004 
 
                  MAIN RIFF

E|-----------------------------------------|
B|--9-13-9--9-11-9------9-13-9--9-11-9-----|
G|----------------10-8----------------10-8-|
D|10------10----------11------11-----------|
A|-----------------------------------------|
E|-----------------------------------------|

                INTRO RYTHYM

E|--------------------------------|
B|--------------------------------|
G|------------6666------------3333|
D|6666----666666663333----33333333|
A|6666----666644443333----33331111|
E|4444----444444441111----11111111|

                   VERSE

E|--------------------------------|
B|--------------------------------|
G|------------6666------------3333|
D|6666----666666663333----33333333|
A|6666----666644443333----33331111|
E|4444----444444441111----11111111|
pm--------------------------------pm
                  CHORUS

E|--------------------------------|
B|--------------------------------|
G|----------------6-6-6-6-44443333|3X
D|6-6-6-6-4-4-33336-6-6-6-44443333|
A|6-6-6-6-4-4-33334-4-4-4-22221111|
E|4-4-4-4-2-2-1111----------------|

E|--------------------------------|
B|--------------------------------|
G|----------------666666667-------|1X
D|6-6-6-6-44443333666666667-------|
A|6-6-6-6-44443333444444445-------|
E|4-4-4-4-22221111----------------|

                   BRIDGE PT1

E|----------------|
B|----6///--------|
G|----6///44--66--|
D|66666///44446644|
A|66664///22444444|
E|44444///22224422|

                   BRIDGE PT2

E|--------------------------------|
B|----6///----6///----6///--------|
G|----6///----6///----6///44--66--|
D|66666///66666///66666///44446644|
A|66664///66664///66666///22444444|
E|44444///44444///44444///22224422|

                  INTERLUDE

E|----------------|
B|----4-------444-|
G|555-5---333-444-|4X
D|666-6---444-444-|
A|666-6---444-222-|
E|444-4---222-222-|

                  OUTRO RIFF

E|----------------|
B|9-9-9-9-9-9-8-7-|
G|-8-8-8-8-8-7-6-5|
D|----------------|
A|----------------|
E|----------------|

                 OUTRO RYTHYM

E|--------|
B|--------|
G|--------|
D|66666---|
A|66666---|
E|44444---|


SONG ORDER

MAIN RIFF 4X 
MAIN RIFF W/ INTRO RYTHYM 4X
VERSE 4X
MAIN RIFF W/ INTRO RYTHYM 2X
VERSE W/ MAIN RIFF 4X
CHORUS W/ MAIN RIFF
BRIDGE PT1 4X
BRIDGE PT2 2X
VERSE 2X
VERSE W/ MAIN RIFF 2X
CHORUS W/ MAIN RIFF 
INTERLUDE
BRIDGE PTI 4X
BRIDGE PT2 W/ OUTRO RIFF 4X
OUTRO RYTHYM W/ OUTRO RIFF 4X



YOGI_LA_BEARO


Important: The song above is NOT stored on the Chordie server. The original song is hosted at www.guitaretab.com. Chordie works as a search engine and provides on-the-fly formatting. Chordie does not index songs against artists'/composers' will. To remove this song please click here.

This song is displayed as text-only. Transposing and tuning is only available for chordpro-songs.

Login - add to songbook

Rating click stars to rate

Layout
Accuracy

SHARE PAGE  




You need to log in to post comments