Guitar Tabs, Chords and Lyrics


Twistinside   Everclear








Author/Artist: Everclear
Title: The Twistinside
Album: Sparkle and Fade
Transcribed by: Hefty Baggs

-|---6---6---6---6---6---6---6---6-|-
-|-----8-------8-------8-------8---|-
-|-0-------0-------0-------0-------|-
-|---------------------------------|-
-|---------------------------------|-
-|---------------------------------|-
                                                                              

-|--10------10----10---10-------10-----10----10---10----|-
-|-----12------12---------12-------12-----12---------12-|-
-|-0-----------------0--------0-----------------0-------|-
-|------------------------------------------------------|-
-|------------------------------------------------------|-
-|------------------------------------------------------|-
                                                                              

-|-10-10-10-3-3-3-5-5-5-3-3-3-|-
-|-12-12-12-5-5-5-7-7-7-5-5-5-|-
-|----------------------------|-
-|----------------------------|-
-|----------------------------|-
-|----------------------------|-
                                                                              

-|-10-10-10-08-08-08-7-|-
-|-12-12-12-10-10-10-8-|-
-|---------------------|-
-|---------------------|-
-|---------------------|-
-|---------------------|-
                                                                              

-|-3-3-3-3-3-2-|-
-|-4-4-4-4-4-3-|-
-|-------------|-
-|-------------|-
-|-------------|-
-|-------------|-
                                                                              

-|-10-10-10-5-5-5-7-7-7-5-5-5-|-
-|-12-12-12-5-5-5-7-7-7-5-5-5-|-
-|----------------------------|-
-|----------------------------|-
-|----------------------------|-
-|----------------------------|-
                                                                              

-|-10-10-10-5-5-5-7-7-7-9-9-9-|-
-|-12-12-12-5-5-5-7-7-7-9-9-9-|-
-|----------------------------|-
-|----------------------------|-
-|----------------------------|-
-|----------------------------|-
                                                                              

-|-3----5----7----5---|-3----5----7----9---|-
-|---3----5----7----5-|---3----5----7----9-|-
-|--------------------|--------------------|-
-|--------------------|--------------------|-
-|--------------------|--------------------|-
-|--------------------|--------------------|-
                                                                              

-|-------------------------------|-
-|-------------------------------|-
-|-----------------5-5-5-5-7-7-7-|-
-|-5-5-5-5-7-7-7-7-5-5-5-5-7-7-7-|-
-|-5-5-5-5-7-7-7-7-3-3-3-3-5-5-5-|-
-|-3-3-3-3-5-5-5-5---------------|-
                                                                              

-|-10-10-10-10-|-
-|-12-12-12-12-|-
-|-------------|-
-|-------------|-
-|-------------|-
-|-------------|-
                                                                              

-|---------------------------------|-
-|---------------------------------|-
-|---------------------------------|-
-|---------------------------------|-
-|-----------------3-3-3-3-1-1-1-1-|-
-|-3-3-3-3-5-5-5-5-----------------|-
                                                                              

-|-19b-19b-19b-19b-19b-|-
-|---------------------|-
-|---------------------|-
-|---------------------|-
-|---------------------|-
-|---------------------|-
                                                                              

-|-3-3-3-3-3-x-5-5-5-7-5-|-
-|-3-3-3-4-3-x-5-5-5-7-5-|-
-|-4-4-4-5-4-x-6-6-6-8-6-|-
-|-5-5-5-5-5-x-7-7-7-9-7-|-
-|-5-5-5-3-5-x-7-7-7-9-7-|-
-|-3-3-3-3-3-x-5-5-5-7-5-|-
                                                                              

-|-----------------------------------------------------------------|-
-|-----------------------------------------------------------------|-
-|-12\--0-2-3-5-3-2-3--0-2-3-5-3-2-3--0--2-3-0--2-3-0--2-3-5-3-2-3-|-
-|-----------------------------------------------------------------|-
-|-----------------------------------------------------------------|-
-|-----------------------------------------------------------------|-
                                                                              

-|---------------------|----|-
-|-8-8-8-8-09-09-09-09-|-12-|-
-|-9-9-9-9-10-10-10-10-|-13-|-
-|---------------------|----|-
-|---------------------|----|-
-|---------------------|----|-
                                                                              

-|-3---3---5---5---6---6---5---5---|-
-|---3---3---3---3---3---3---3---3-|-
-|---------------------------------|-
-|---------------------------------|-
-|---------------------------------|-
-|---------------------------------|-
                                                                              

-|-3-3-3-3-5-5-5-5-6-6-6-6-5-5-5-5-|-
-|-3-3-3-3-3-3-3-3-3-3-3-3-3-3-3-3-|-
-|---------------------------------|-
-|---------------------------------|-
-|---------------------------------|-
-|---------------------------------|-
                                                                              

-|-15-13-12----------|-
-|----------15-12-13-|-
-|-------------------|-
-|-------------------|-
-|-------------------|-


Important: The song above is NOT stored on the Chordie server. The original song is hosted at www.guitaretab.com. Chordie works as a search engine and provides on-the-fly formatting. Chordie does not index songs against artists'/composers' will. To remove this song please click here.

This song is displayed as text-only. Transposing and tuning is only available for chordpro-songs.

Login - add to songbook

Rating click stars to rate

Layout
Accuracy

SHARE PAGE  




You need to log in to post comments