Guitar Tabs, Chords and Lyrics


Andy Micu Song   Exile



----------------------------------------------------------------------------
			     the andy micu song - ExIle
----------------------------------------------------------------------------
Tabbed by: andy micu
Email: loyydchristmas77@yahoo.com

Tuning: E A D G B e


Verse 1: (listen to song for rythym)
e|------------------------------------------------------|
B|------------------------------------------------------|
G|---------------------7---------9-----5----------------|
D|---------5-------7----------9--------5-----x2---------|
A|------5------5-----------7-----------3----------------|
E|---3--------------------------------------------------|
                                                  then....

e|------------------------------------------------------|
B|------------------------------------------------------|
G|--------77----99---5----------------------------------|
D|--55----77----99---5--let ring-----x2-----------------|
A|--55----55----77---3----------------------------------|
E|--33--------------------------------------------------|

   His name was andy....
e|------------------------------------------------------|
B|------------------------------------------------------|
G|--------77----99---5----------------------------------|
D|--55----77----99---5--let ring------------------------|
A|--55----55----77---3----------------------------------|
E|--33--------------------------------------------------|
                           
                          
e|-------------------------------------------|
B|-------------------------------------------|
G|---------- 77------99-----5----------------|
D|---55------77------99-----5-----x2---------|
A|---55------55------77-----3----------------|


Important: The song above is NOT stored on the Chordie server. The original song is hosted at www.guitaretab.com. Chordie works as a search engine and provides on-the-fly formatting. Chordie does not index songs against artists'/composers' will. To remove this song please click here.

This song is displayed as text-only. Transposing and tuning is only available for chordpro-songs.

Login - add to songbook

Rating click stars to rate

Layout
Accuracy

SHARE PAGE  




You need to log in to post comments