Guitar Tabs, Chords and Lyrics


Daily News   Exploited



-------------------------------------------------------------------------------
		daily news- exploited
-------------------------------------------------------------------------------
Tabbed by:punkaschuck
Email:cmbaker27Hotmail.com

Tuning:E

e|--------------------------------------------------------------------------------------|
B|--------------------------------------------------------------------------------------|
G|--------------------------------------------------------------------------------------|
D|------9------9----9-------p-10--p-9-----7---------------------------------------------|
A|-----7------7----7-------p-10--p-9----7-----------------------------------------------|
E|--xx------xx----0-------------------------repeat--------------------------------------|

e|--------------------------------------------------------------------------|
B|--------------------------------------------------------------------------|
G|--------------------------------------------------------------------------|
D|--------------------------------x5--5-/----4-------4-----4--------4-------|
A|----9--9---7---7------5------x3---3/----2-------2------2-------2----------|


Important: The song above is NOT stored on the Chordie server. The original song is hosted at www.guitaretab.com. Chordie works as a search engine and provides on-the-fly formatting. Chordie does not index songs against artists/composers will. To remove this song please click here.

This song is displayed as text-only. Transposing and tuning is only available for chordpro-songs.

Login - add to songbook

Rating click stars to rate

Layout
Accuracy

SHARE PAGE  




You need to log in to post comments