Chordie logo

Boys In Blue   Exploited



The Exploited- Boys in Blue
off 'The Massacre'

Tabbed by:Kyle
Email:akaflyr@hotmail.com

Tuning:standard

intro:
e|-------------------------------------------------------------------------|
B|-------------------------------------------------------------------------|
G|-----------------------------------------x2------------------------------|
D|--12-12-12-12-12-12-10-10-10-10-8-8-8-8----------------------------------|
A|--10-10-10-10-10-10--8--8--8--8-6-6-6-6----------------------------------|
E|-------------------------------------------------------------------------|

e|-------------------------------------------------------------------------|
B|-------------------------------------------------------------------------|
G|----------------x4-------------------------------------------------------|
D|--1212--10---8-----------------------------------------------------------|
A|--1010---8---6-----------------------------------------------------------|
E|-------------------------------------------------------------------------|

verse
e|-------------------------------------------------------------------------|
B|-------------------------------------------------------------------------|
G|-------------------------------------------------------------------------|
D|--12x-12x-12x-12x-12x-12x-10--6------------------------------------------|
A|--10x-10x-10x-10x-10x-10x--8--6------------------------------------------|
E|-------------------------------------------------------------------------|

Chorus:x4
e|-------------------------------------------------------------------------|
B|-------------------------------------------------------------------------|
G|-------------------------------------------------------------------------|
D|--5/7--5/7-8-------------------------------------------------------------|
A|--3/5--3/5-6-------------------------------------------------------------|
E|-------------------------------------------------------------------------|

Police sirens break the air
Theyre on their way
Riots break out on the streets
Someones got to pay
Why has it got to this
They wonder why
Why cant they realise
Someones going to die
Theyre after you
Boys in blue
Boys in blue
Running after you
Police vans screech to a halt
Out jump the law
Chasing youths down the street
Beat them with a stick
You resist, they hit you more
What can you do
Dragged away into their van
So they can bully you
No-ones left on the streets
Its quietened down
The problem still exist
Solutions must be found
Tension in the cities
Its running high
Its going to explode soon
Youre all about to die
The governments not interested
They dont care at all
They think that jailing you
Its the problem solved

My time in prison I resent them more
Why cant they face the facts
That their policies are wrong 

-----------------------------------------------------


Important: The song above is NOT stored on the Chordie server. The original song is hosted at www.guitaretab.com. Chordie works as a search engine and provides on-the-fly formatting. Chordie does not index songs against artists/composers will. To remove this song please click here.

This song is displayed as text-only. Transposing and tuning is only available for chordpro-songs.

Login - add to songbook

Rating click stars to rate

Layout
Accuracy

SHARE PAGE  

You need to log in to post comments