Guitar Tabs, Chords and Lyrics


La Vieja Cancin Srdida  Extremoduro


Keyboard intro; Play this with the right hand and one octave
below with the left hand. When I write (B), this means that
you must play this only with the left hand, keeping the right
(when the D chord appears I´m not sure if that´s the way):

[Em]              [C]       [Am]       [D]         
B |C |A (B) |A
G F# A F# |G A |F# |F# G G#
E |E |D |D
[]
Yonkis:
[]Manué... Vamo! (aumpf!) que ehtán saliendo ya de la misa.
Ahm! Ay, ay. Q´no pueo que ehtoy cagando tío.
[]
This is the guitar base of the song.
You have to mute the guitar sometimes, but this isn´t tabbed;
litsen to the song a try it until you got it.

[Em]             [D]                  [C]    [B]                                                                   
e--------------|---------------|--------------|---------------|-
b--------------|---------------|--------------|---------------|-
g--------------|---------------|--------------|---------------|-
d---5-----5---4|-4---4h5p4-----|---2-----2---1|-1---1h2p1-----|-
a---7-----7---5|---5-------7p5-|-3-3-3-3-3-3-2|---2-------4p2-|-
e-0---0-0---0--|---------------|--------------|---------------|-


[Am]             [D]                  [Am]    [Em] 
e--------------|---------------|--------------|---------------|-
b--------------|-----7p8h7-----|--------------|---------------|-
g---5-4--5-4--7|-7---------7---|--------------|---------------|-
d---7---------7|---7---------7-|---7-----7---5|---------------|-
a-0------------|---------------|---7-----7---7|---------------|-
e--------------|---------------|-0---0-0---0--|---------------|-


You may like more this other way:

[Em]             [D]                  [C]     [B]                                                                   
e--------------|---------------|--------------|---------------|-
b--------------|---------------|--------------|---------------|-
g--------------|---------------|--------------|---------------|-
d---5-----5---4|-4---4h5p4-----|---2-----2---1|-1---1h2p1-----|-
a---7-----7---5|---5-------7p5-|-3-3-3-3-3-3-2|---2-------4p2-|-
e-0---0-0---0--|---------------|--------------|---------------|-


[Am]             [D]                  [Am]    [Em] 
e--------------|-----2p3h2-----|--------------|---------------|-
b---1-0--1-0--3|-3---------3---|--------------|---------------|-
g---2---------2|---2---------2-|--------------|---------------|-
d--------------|---------------|---7-----7---5|---------------|-
a-0------------|---------------|---7-----7---7|---------------|-
e--------------|---------------|-0---0-0---0--|---------------|-


This is the scale.
The a and d strings are a bit muted:

e-----------------------------|
b-----------------------------|
g-----------------4-5-4---4v--|
d-------4-5-4-5-7-------7-----|
a-7-5-7-----------------------|
e-----------------------------|
e-----------------------------|
b-----------------------------|
g-----------------4-5-4---4v--|
d-------4-5-4-5-7-------7-----|
a-7-5-7-----------------------|
e-----------------------------|


The guitar melody between the scales:

e-15--------------------------|
b------12---12-13-15----------|
g-----------------------------|
d-----------------------------|
a-----------------------------|
e-----------------------------|
e----------------------------------|
b-15-------------12--13--12p13h12--|
g------12---14---------------------|
d----------------------------------|
a----------------------------------|
e----------------------------------|
e-15--------------------------|
b------12---12-13-15----------|
g-----------------------------|
d-----------------------------|
a-----------------------------|
e-----------------------------|
e----------------------------------|
b-15-------------12--13----12------|
g------12---14----------14---------|
d----------------------------------|
a----------------------------------|
e----------------------------------|


The first guitar melody (0:46):

[Em]                                                                                                      
e---------------|-
b---------------|-
g---------------|-
d----------4-5-7|-
a-------7-------|-
e---------------|


[Em]             [D]                  [C]     [B]                                                                  
e--------------|---------------|--------------|---------------|-
b--------------|-----5-7--8---8b9--------8-7-5|-4-------------|-
g-4------------|-7-------------|--------------|---------------|-
d--------------|---------------|--------------|---------------|-
a--------------|---------------|--------------|---------------|-
e--------------|---------------|--------------|---------------|-

[Am]             [D]                  [Am]    [Em] 
e--------------|---------------|--------------|---------------|-
b--------------|---------------|8v-5----------|---------------|-
g-9p7----------|------------4-7|-----7-4------|---------------|-
d----10-9-7-5-5|7b9-5---5-7----|---------7-5--|---------------|-
a--------------|------7--------|-------------7|---------------|-
e--------------|---------------|--------------|---------------|-


I will work more on this tab but now I must do movidas...

Lyrics:

Cruzando la acera
por debajo del cielo
había una calleja.
Y hablando de flores...
Allí no había flores. ¡Qué va!

Había una calleja
y pasaba una vieja
con un monedero.
Y hablando del cielo...
Cayó dios del cielo. ¡Corre!

Cogió las pesetas
y se fue a una caseta
"toa" llena de...
Y hablendo de flores...
Allí no había flores. ¡Qué va!

Boreo more or less:

Quien anda ahí. Cogerle, cogerle vivo...

Socorro! Sinverguenza! Sinverguenza! Socorro, auxilio!...
Curro!... Pelón!
Pirubirubirubiru

Morales, echale al perro hostia!
Coge el PUTO perro!
Pum
No te jode el PUTO perro!

Important: The song above is NOT stored on the Chordie server. The original song is hosted at www.guitaretab.com. Chordie works as a search engine and provides on-the-fly formatting. Chordie does not index songs against artists'/composers' will. To remove this song please click here.

Text color:
Chord color:
Chord grids: 
Font size:    
Page size: 

Am B C D Em
variations - click chord images

Login - add to songbook

Transpose chords

Tuning

Rating click stars to rate

Layout
Accuracy

SHARE PAGE  




You need to log in to post comments