eToCache5 = ""; ?> Ooh La La by Faces - guitar chords, guitar tabs and lyrics - chordie

Ooh La La

Faces

 DEm7G
|--------------------------------|

|--------------------------------|
|--2-----------------------------|
|----5-4-2-0h2-4--5-4-2----------|
|-----------------------5-0h2-5--|
|--------------------------------|

Simple Melody Line:
 DEm7G
|----------------------------------|

|----------------------------------|
|--2-2-2-4-2---------0-0-0---------|
|------------4-0-2-2-------4-2-0---|
|----------------------------------|
|----------------------------------|

Chordal Version:
 DEm7G
|-2-2-2-2-2-2-2-------0-0---3-3-3-3----------|

|-3-3-3-3-3-3-3-------3-3---3-3-3-3----------|
|-2-2-2-4-2-0-2-------0-0---0-0-0-0----------|
|-0-0-0-0-0-0-0--4-0--2-2---0-0-0-0--4-2-0---|
|---------------------2-2---2-2-2-2----------|
|---------------------------3-3-3-3----------|

Verse 1:
 DEm7
Poor old Granddad  I laughed at all his words
 DEm7
I thought he was a bitter man   He spoke of women's ways
 DEm7
They'll trap you, then they use you  Be-fore you even know
 DEm7
For love is blind and you're far too kind   Don't ever let it show

Chorus:
 DEm7G
I wish that I knew all I know now   When I was younger
 DEm7G
I wish that I knew all I know now   When I was stronger.

Main Melody x2

Verse 2:
 DEm7
The Can Can's such a pretty show   They'll steal your heart away
 DEm7
But backstage, back on earth again   The dressing rooms are grey
 DEm7
They come on strong and it ain't too long   Before they make you feel a man
 DEm7
But love is blind and you soon will find   You're just a boy again

Chorus
Play around with D chord during 'solo'
Main melody x2

Verse 3:
 DEm7
When you want her lips, you get a cheek   Makes you wonder where you are
 DEm7
If you want some more and she's fast asleep   Leaves you twinkling with the stars.
 DEm7
Poor young grandson, there's nothing I can say
 DEm7
You'll have to learn, just like me  And that's the hardest way

Chorus
Main melody x2
Start ooh la la-ing
Main Melody x4

Play intro/outro

Questions, problems, corrections, or even better, compliments,
Mail me: Danny Laycock (thisisdannylaycock@hotmail.com)


Corrected by jenkeef. View original
D Em7 G
variations - click chord images
Transpose chords:
Tuning:
Cool service:
View: Size:
A  A  A
Rating:
Layout:
  • Currently 3.7/5 Stars.
  • 1
  • 2
  • 3
  • 4
  • 5
 
Accuracy:
  • Currently 2.8/5 Stars.
  • 1
  • 2
  • 3
  • 4
  • 5
 
click stars to rate
Chordie recommends:
Learn to play guitar with video-based, online guitar lessons at JamPlay.com
Songbook:
Login to add this song to your songbook
Support the artist
Preview/buy this song
MSN Music
Why this non-profit ad?

 
login to add comments/video/corrections