Chordie logo

Naked In Front Of The Computer   Faith No More



artist:faith no more
song: naked in front of the computer
album: album of the year
tabbed by: mr_munners@hotmail.com

Intro guitar

----------------------------------------------|
----------------------------------------------|
----------------------------------------------|
----------------------------------------------|
----------------------------------------------|
--1-1-1-1-2-2-2-2-3-3-3-3-4-4-4-5-------------|

----------------------------------------------|
----------------------------------------------|
----------------------------------------------|
----------------------------------------------|
----------------------------------------------|
--5-5-5-4-4-4-4-3-3-3-3-2-2-2-0---------------|

---------------------------------------------|
---------------------------------------------|
---------------------------------------------|
---------------------------------------------|
---------------------------------------------|
--1-1-1-1-2-2-2-2-3-3-3-3-4-4-4-5------------|

band joins in...

--------------------------------------------|
--------------------------------------------|
--------------------------------------------|
---5-5-5-8-8-8-8-8---4-4-4-7-7-7-7-7--------|
---5-5-5-8-8-8-8-8---4-4-4-7-7-7-7-7--------|
---5-5-5-8-8-8-8-8---4-4-4-7-7-7-7-7--------|

--------------------------------------------|
--------------------------------------------|
--------------------------------------------|
--1-1-1-1-2-2-2-2-3-3-3-3-4-4-4-5-----------|
--1-1-1-1-2-2-2-2-3-3-3-3-4-4-4-5-----------|
--1-1-1-1-2-2-2-2-3-3-3-3-4-4-4-5-----------|

-------------------------------------------|
-------------------------------------------|
-------------------------------------------|
--5-5-5-4-4-4-4-3-3-3-3-2-2-2-0------------|
--5-5-5-4-4-4-4-3-3-3-3-2-2-2-0------------|
--5-5-5-4-4-4-4-3-3-3-3-2-2-2-0------------|

--------------------------------------------|
--------------------------------------------|
--------------------------------------------|
--1-1-1-1-2-2-2-2-3-3-3-3-4-4-4-5-----------|
--1-1-1-1-2-2-2-2-3-3-3-3-4-4-4-5-----------|
--1-1-1-1-2-2-2-2-3-3-3-3-4-4-4-5-----------|


verse 1 repeat 8x "my box is full..."

-----------------------------|
-----------------------------|
-----------------------------|
---1-1----4-4-4--7-8---0-----|
---1-1----4-4-4--7-8---0-----|
---1-1----4-4-4--7-8---0-----|

chorus "what I say..."

--------|
--------|
--------|
---4-2--|
---4-2--|
---4-2--|

---------------|
---------------|
---------------|
---6-6--6------|
---4-4--4---2--| 4x
------------0--|

---------------|
---------------|
---------------|
---8-8--8------|
---6-6--6---4--| 4x
------------2--|

verse 2 repeat 8x "I bought the thing...."

-----------------------------|
-----------------------------|
-----------------------------|
---1-1----4-4-4--7-8---0-----|
---1-1----4-4-4--7-8---0-----|
---1-1----4-4-4--7-8---0-----|

chorus "what I say..."

--------|
--------|
--------|
---4-2--|
---4-2--|
---4-2--|


---------------|
---------------|
---------------|
---6-6--6------|
---4-4--4---2--| 4x
------------0--|

---------------|
---------------|
---------------|
---8-8--8------|
---6-6--6---4--| 4x
------------2--|

thenÂ…
----------------------------------------------|
----------------------------------------------|
----------------------------------------------|
----------------------------------------------|
----------------------------------------------|
--1-1-1-1-2-2-2-2-3-3-3-3-4-4-4-5-------------|

----------------------------------------------|
----------------------------------------------|
----------------------------------------------|
----------------------------------------------|
----------------------------------------------|
--5-5-5-4-4-4-4-3-3-3-3-2-2-2-0---------------|

---------------------------------------------|
---------------------------------------------|
---------------------------------------------|
---------------------------------------------|
---------------------------------------------|
--1-1-1-1-2-2-2-2-3-3-3-3-4-4-4-5------------|

"i'm sending it back to you..."

--------------------------------------------|
--------------------------------------------|
--------------------------------------------|
---5-5-5-8-8-8-8-8---4-4-4-7-7-7-7-7--------|
---5-5-5-8-8-8-8-8---4-4-4-7-7-7-7-7--------|


Important: The song above is NOT stored on the Chordie server. The original song is hosted at www.guitaretab.com. Chordie works as a search engine and provides on-the-fly formatting. Chordie does not index songs against artists/composers will. To remove this song please click here.

This song is displayed as text-only. Transposing and tuning is only available for chordpro-songs.

Login - add to songbook

Rating click stars to rate

Layout
Accuracy

SHARE PAGE  

You need to log in to post comments