Guitar Tabs, Chords and Lyrics


Help Me   Falcon Destroyer Crew



Falcon Destroyer Crew
Help Me
The Hatred

E--------------------------
B--------------------------
G--------------------------
D--------------------------
A--2--5--3-3--2--2--2--7--1
E--4--5--3-3--4--2--2--5--0

Chorus:
Can you help me?!
Will we ever be?!
Why can't you see?!
Some one help me!

E-----------
B-----------
G-----------
D--5-5-5-5-5
A--5-5-5-5-5


Important: The song above is NOT stored on the Chordie server. The original song is hosted at www.guitaretab.com. Chordie works as a search engine and provides on-the-fly formatting. Chordie does not index songs against artists/composers will. To remove this song please click here.

This song is displayed as text-only. Transposing and tuning is only available for chordpro-songs.

Login - add to songbook

Rating click stars to rate

Layout
Accuracy

SHARE PAGE  




You need to log in to post comments