Guitar Tabs, Chords and Lyrics


Cadillac Phunque   Family Force 5



Corrected version - use this one

Family Force 5

Cadillac Phunque

Not perfect, but you’ll get the other little
pieces as you play it.  Another krunkin’
jam by FF5!!

Intro and main riff throughout song:
E|---------------------------------------------|
B|---------------------------------------------|
G|---------------------------------------------|
D|-0-10-9-0-10—--10-9-0-10—-0-10-0-3-5—-335----|
A|-0-10-9-0-10—--10-9-0-10--0-10-0-3-5—-335----|
D|-0-10-9-0-10—--10-9-0-10--0-10-0-3-5—-335----|


Verse – Guitar 1
Best to bar this and avoid noise
Scratch through it on the D/G/B strings
E|---10-------10--------------------------|
B|---10-------10--------------------------|
G|---1012-----1011------------------------|
D|-- 1012—----1012------------------------|
A|---10-------10--------------------------|
D|----------------------------------------|


Other little riff – Also best to bar and avoid noise
Scratch through it on the D/G/B strings
E|----5 xx5 x5 x5 xxxx5 xx5 x5 x5 -5----------|
B|----57xx57x57x57xxxx57xx57x57x57-57---------|
G|----57xx57x57x57xxxx57xx57x57x57-578h7p-----|
D|----57xx57x57x57xxxx57xx57x57x57-57---------|
A|----5 xx5 x5 x5 xxxx5 xx5 x5 x5 -5----------|
D|--------------------------------------------|


Another little transitional riff –
E|-------------------------------|
B|-------------------------------|
G|-------------------------------|
D|----5---555533-----------------|
A|----5---555533-----------------|


Important: The song above is NOT stored on the Chordie server. The original song is hosted at www.guitaretab.com. Chordie works as a search engine and provides on-the-fly formatting. Chordie does not index songs against artists'/composers' will. To remove this song please click here.

This song is displayed as text-only. Transposing and tuning is only available for chordpro-songs.

Login - add to songbook

Rating click stars to rate

Layout
Accuracy

SHARE PAGE  




You need to log in to post comments