Guitar Tabs, Chords and Lyrics


Those Never Forgotten  Far From Finished

---6-6-6-6-6-6-6-6-8-8-8-8-8-8-8-8---|


---6-6-6-6-6-6-6-6-8-8-8-8-8-8-8-8---|


-------------------------------------|

-------------------------------------| x7
-------------------------------------|
-------------------------------------|
--------|
--------|
---10---|
---10---|
---8----| x1
--------|
-----------------------------|
-----------------------------|
---10-10-10-10---------------|
---10-10-10-10-10-10-10-10---|
---8--8--8--8--10-10-10-10---| x3
---------------8--8--8--8----|
---------------------|
---------------------|
---7-7-7-5-4-4-4-4---|
---7-7-7-5-4-4-4-4---|
---5-5-5-3-2-2-2-2---| x1
---------------------|
[F]    [C]    [F]    [C]    [F]    [C]    [D]   [CB]          
Bridge:
Both Guitars
[F]    [C]                                 
Solo:
---13-12-10-12-----10-12-13-12-10-12-13b-13-13-12-10-12-------|
---------------13~--------------------------------------13~---|
--------------------------------------------------------------|
--------------------------------------------------------------|
--------------------------------------------------------------|
--------------------------------------------------------------|				


Important: The song above is NOT stored on the Chordie server. The original song is hosted at www.guitaretab.com. Chordie works as a search engine and provides on-the-fly formatting. Chordie does not index songs against artists'/composers' will. To remove this song please click here.

Text color:
Chord color:
Chord grids: 
Font size:    
Page size: 

C D F
variations - click chord images

Login - add to songbook

Transpose chords

Tuning

Rating click stars to rate

Layout
Accuracy

SHARE PAGE  




You need to log in to post comments