Guitar Tabs, Chords and Lyrics


Lost In The Rain   Far From Finished



Far From Finished
East Side of Nowhere
Lost in the Rain

Verse:
-------------------------------------|
-------------------------------------|
---7-7-7-7---------------------------|
---7-7-7-7-7-7-7-7-4-4-4-4-5-5-5-5---|
---5-5-5-5-7-7-7-7-4-4-4-4-5-5-5-5---| x2
-----------5-5-5-5-2-2-2-2-3-3-3-3---|

Pre-Chorus:
-----------------------------------------------------|
-----------------------------------------------------|
-----------------------------------------------------|
---2---------------5---------------7-7-7-7-7-7-7-7---|
---2---------------5---------------7-7-7-7-7-7-7-7---|
---0---------------3---------------5-5-5-5-5-5-5-5---|
                                   pm............pm

Chorus:
-------------------------------------|
-------------------------------------|
---7-7-7-7---------------------------|
---7-7-7-7-7-7-7-7-5-5-5-5-5-5-5-5---|
---5-5-5-5-7-7-7-7-5-5-5-5-5-5-5-5---| x4
-----------5-5-5-5-3-3-3-3-3-3-3-3---|

Bridge:
Guitar 1
------------------------------------------------------------------|
------------------------------------------------------------------|
---------------------------------------------------10--10---------|
---11-11-11-11-12-12-12-12-11-11-11-11-12-12-12-12-12b-12-11-12---|
------------------------------------------------------------------| x2
------------------------------------------------------------------|

Guitar 2
Plays Chorus

Verse 2:
-------------------------------------|
-------------------------------------|
---7-7-7-7---------------------------|
---7-7-7-7-7-7-7-7-4-4-4-4-5-5-5-5---|
---5-5-5-5-7-7-7-7-4-4-4-4-5-5-5-5---| x2
-----------5-5-5-5-2-2-2-2-3-3-3-3---|
   pm............................pm

Bridge:
---------------------------------------------------------------------|
---------------------------------------------------------------------|
---------------------------------------------------------------------|
---4-4-----5-5-5-5-4-4-----5-5-5-5-4-4-----5-5-5-5-7-7-7-7-7-7-7-7---|
---4-4-----5-5-5-5-4-4-----5-5-5-5-4-4-----5-5-5-5-7-7-7-7-7-7-7-7---|
---2-2-----3-3-3-3-2-2-----3-3-3-3-2-2-----3-3-3-3-5-5-5-5-5-5-5-5---|

Repeat Chorus

Chorus 2:
-------------------------------------|
-------------------------------------|
---9-9-9-9---------------------------|
---9-9-9-9-9-9-9-9-7-7-7-7-7-7-7-7---|
---7-7-7-7-9-9-9-9-7-7-7-7-7-7-7-7---| x4


Important: The song above is NOT stored on the Chordie server. The original song is hosted at www.guitaretab.com. Chordie works as a search engine and provides on-the-fly formatting. Chordie does not index songs against artists'/composers' will. To remove this song please click here.

This song is displayed as text-only. Transposing and tuning is only available for chordpro-songs.

Login - add to songbook

Rating click stars to rate

Layout
Accuracy

SHARE PAGE  




You need to log in to post comments