Chordie logo


Seasonal Patriot   Far From Finished



Far From Finished
East Side of Nowhere
Seasonal Patriot

Verse:

Part 1

----------------------------------|
----------------------------------|
---7-------7----------------------|
---7-------7-------4---2----------|
---5-------5-------4---2----------|
-------------------2---0----------|

Part 2
---------------------------|
---------------------------|
---7-7-7-7-7-7-7-7---------|
---7-7-7-7-7-7-7-7-4---2---|
---5-5-5-5-5-5-5-5-4---2---|
-------------------2---0---|
  pm............pm

Chorus:

Guitar 1
Part 1

-----------------------------------------|
-----------------------------------------|
---7-7-7-7---------4-4-4-4---------------|
---7-7-7-7-7-7-7-7-4-4-4-4-5-5-5-5-------|
---5-5-5-5-7-7-7-7-2-2-2-2-5-5-5-5-------|
-----------5-5-5-5---------3-3-3-3-------|

Part 2

-------------------------------------|
-------------------------------------|
---7-7-7-7---------------------------|
---7-7-7-7-7-7-7-7-5-5-5-5-5-5-5-5---|
---5-5-5-5-7-7-7-7-5-5-5-5-5-5-5-5---|
-----------5-5-5-5-3-3-3-3-3-3-3-3---|
                   pm.............pm

Repeat Chorus Once More

Guitar 2
Part 1

-----------------------------------------------------|
-----------------------------------------------------|
---------------14-14-14-14-16-16-16-16-12-12-12-12---|
---12-12-12-12-x--x--x--x--x--x--x--x--x--x--x--x----|
---x--x--x--x--12-12-12-12-14-14-14-14-10-10-10-10---|
---10-10-10-10---------------------------------------|

Part 2

-------------------------------------|
-------------------------------------|
---7-7-7-7---------------------------|
---7-7-7-7-7-7-7-7-5-5-5-5-5-5-5-5---|
---5-5-5-5-7-7-7-7-5-5-5-5-5-5-5-5---|
-----------5-5-5-5-3-3-3-3-3-3-3-3---|
                   pm.............pm

Repeat Whole Chorus Once

Bridge:
---------------------------------------------|
---------------------------------------------|
---7-7-7-7-9-9-9-9-12-12-12-12-12-12-12-12---|
---x-x-x-x-x-x-x-x-x--x--x--x--x--x--x--x----|
---5-5-5-5-7-7-7-7-10-10-10-10-10-10-10-10---| x2


Important: The song above is NOT stored on the Chordie server. The original song is hosted at www.guitaretab.com. Chordie works as a search engine and provides on-the-fly formatting. Chordie does not index songs against artists/composers will. To remove this song please click here.

This song is displayed as text-only. Transposing and tuning is only available for chordpro-songs.

Login - add to songbook

Rating click stars to rate

Layout
Accuracy

SHARE PAGE  




You need to log in to post comments