Guitar Tabs, Chords and Lyrics


Being Human   Far Sight



Being Human
By Far Sight from the 'Being Human' EP
Music by Ryan Martin,
Tablature compiled by Adrian Cassidy


INTRO / CHORUS
E|-2-2-2-2-2-2-2-2-2-2-2-2--3-3-3-3-3-3-3--3-3-3-3-3-3-3--|
B|-3-3-3-3-3-3-3-3-3-3-3-3--3-3-3-3-3-3-3--3-3-3-3-3-3-3--|
G|-2-2-2-2-2-2-2-2-2-2-2-2--0-0-0-0-0-0-0--0-0-0-0-0-0-0--|
D|-0-0-0-0-0-0-0-0-0-0-0-0--2-2-2-2-2-2-2--0-0-0-0-0-0-0--|
A|--------------------------3-3-3-3-3-3-3--2-2-2-2-2-2-2--|
E|-----------------------------------------3-3-3-3-3-3-3--|

FILL 1 FOR CHORUS
E|--------------------------------------------|
B|--------------------------------------------|
G|-9-/-11-11-11-11-12-12-12-11-11-11-\-9-9-9--|
D|-0-/-0--0--0--0--0--0--0--0--0--0--\-0-0-0--|
A|--------------------------------------------|
E|--------------------------------------------|

VERSE
E|-222222222222222222222222--222222222222--000000000000--|
B|-333333333333333333333333--333333333333--000000000000--|
G|-222222222222222222222222--444444444444--222222222222--|
D|---------------------------444444444444--222222222222--|
A|---------------------------222222222222--000000000000--|
E|-------------------------------------------------------|

PRE CHORUS
E|------------------------------------------------------|
B|------------------------------------------------------|
G|------------------------------------------------------|
D|-5-5-5-5-5-5-5-/-7-7-7-7-\-4-4-4-4-4---4---4---4---4--|
A|-5-5-5-5-5-5-5-/-7-7-7-7-\-4-4-4-4-4---4---4---4---4--|
E|-3-3-3-3-3-3-3-/-5-5-5-5-\-2-2-2-2-2-0h2-0h2-0h2-0h2--|

BRIDGE
E|-3-3-3-3-3-3-3-3--3-3-3-3-3-3-3-3--3-3-3-3-3-3-3-3------------------|
B|-3-3-3-3-3-3-3-3--3-3-3-3-3-3-3-3--3-3-3-3-3-3-3-3--3-3-3--2-2-2-2--|
G|-0-0-0-0-0-0-0-0--0-0-0-0-0-0-0-0--0-0-0-0-0-0-0-0--2-2-2--2-2-2-2--|
D|-2-2-2-2-2-2-2-2--0-0-0-0-0-0-0-0--0-0-0-0-0-0-0-0--2-2-2--2-2-2-2--|
A|-2-2-2-2-2-2-2-2--x-x-x-x-x-x-x-x--2-2-2-2-2-2-2-2--0-0-0--0-0-0-0--|
E|-0-0-0-0-0-0-0-0--2-2-2-2-2-2-2-2--3-3-3-3-3-3-3-3------------------|

FILL 2 FOR BRIDGE
E|------------------------------------------|
B|------------------------------------------|
G|------------------------------------------|
D|-----0---0-----0---0-----0---0-----0---0--|
A|---0---0-----0---0-----0---0-----4---4----|
E|-0---------2---------3---------5----------|

FILL 3
E|-----------------------------------|
B|-----------------------------------|
G|-7-7-7-7-7-7-7--6-6-6-6-6-6-6--7/--|
D|-7-7-7-7-7-7-7--7-7-7-7-7-7-7--7/--|
A|-5-5-5-5-5-5-5--5-5-5-5-5-5-5--5/--|
E|-----------------------------------|

END RIFF
E|------------------------------------------------------|
B|------------------------------------------------------|
G|------------------------------------------------------|
D|-7-7-7-7-7-7-/-9-9-9--5-5-5-5-5-5-/-9-9-9-------------|
A|-5-5-5-5-5-5-/-7-7-7--3-3-3-3-3-3-/-7-7-7--5-5-5-5-5--|
E|-------------------------------------------3-3-3-3-3--|



Important: The song above is NOT stored on the Chordie server. The original song is hosted at www.guitaretab.com. Chordie works as a search engine and provides on-the-fly formatting. Chordie does not index songs against artists/composers will. To remove this song please click here.

This song is displayed as text-only. Transposing and tuning is only available for chordpro-songs.

Login - add to songbook

Rating click stars to rate

Layout
Accuracy

SHARE PAGE  




You need to log in to post comments