Walking Away

Fast Forward

 GEmCadd9DDsus2
e|--3----0------3-----2-----0---|
B|--3----0------3-----3-----3---|
G|--0----0------0-----2-----2---|
D|--0----2------2-----0-----0---|
A|--2----2------3-----0-----0---|
E|--3----0------0-----x-----x---|


Intro:

e|--------------------------------|
B|-0----0h1p0----3-----3--5------5|
G|---0--------0----0--------0-----|
D|--------------------------------| (x2)
A|---------------2---2----3---3---|
E|-3----3-------------------------|


Verse:
e|--------------------------------|
B|-0----0h1p0----3-----3--5------5|
G|---0--------0----0--------0-----|
D|--------------------------------|
A|---------------2---2----3---3---|
E|-3----3-------------------------|

Its about the nights we spend locked up inside your room

e|--------------------------------|
B|-0----0h1p0----3-----3--5------5|
G|---0--------0----0--------0-----|
D|--------------------------------|
A|---------------2---2----3---3---|
E|-3----3-------------------------|

Its about the morning breaking always just a bit too soon

Pre-chorus:
e|------------------------------------------|
B|--------------------0-----------------3---|
G|--------------------0-----------------2---|
D|--------------------------------0-0-------|
A|------------2-2---------------------------|
E|------------------------------------------|

Its about the way you're scared, baby

 GEmDsus2Cadd9
just maybe I'm   aware

 Dsus2
 This is what you need 'cause

Chorus:

 Cadd9G
 Everytime you walk in the room,

 EmD
I can't help myself I want to be with you.

 Cadd9G
 With the mic, a quick check one-two,

Em D Cadd9 (strum twice and mute)
Singing out my lungs just to reach you.

 GEmD
I'm alive, and I'll keep my cool one more

 Cadd9EmDsus2
 time,    and you just keep on walking by.

e|--------------------------------|
B|-0----0h1p0----3-----3--5------5|
G|---0--------0----0--------0-----|
D|--------------------------------| (x2)
A|---------------2---2----3---3---|
E|-3----3-------------------------|


Verse 2:
(Played the same way but more like strumming)
I take it in to tell myself it's going to end up fine.

It's all part of some master plan.

We're all a little lost inside.

 EmDsus2
Even if i ran right now, swore you off

 GEmDsus2Cadd9
I'd still come back some how.

 Dsus2
 and here I am now.

Repeat Chorus

Bridge:
 GEmD
 I take a day to soak you in

 GEmD
for a while, I'm hanging on the best i can

 GEmD
let go, cause maybe if I felt it once,

 GDsus2EmCadd9
then I could somehow feel it again.

Picked rapidly
e|---------------------------------------------------------|
B|-------------------------------------------------------1-|
G|------0----------0----------0----------0------------0----|
D|--------0----------0----------0----------0------0h2------|
A|----2----------2---------2----------2---------3----------|
E|--0----------2---------3----------2----------------------|


Repeat Chorus

Outro:
e|--------------------------------|
B|-0----0h1p0----3-----3--5------5|
G|---0--------0----0--------0-----|
D|--------------------------------| (x2)
A|---------------2---2----3---3---|
E|-3----3-------------------------|



Cadd9 D Dsus2 Em G
variations - click chord images
Transpose chords:
Tuning:
Cool service:
View: Size:
A  A  A
Rating:
Layout:
  • Currently 2/5 Stars.
  • 1
  • 2
  • 3
  • 4
  • 5
 
Accuracy:
  • Currently 0/5 Stars.
  • 1
  • 2
  • 3
  • 4
  • 5
 
click stars to rate
Chordie recommends:
Get acoustic guitar lessons and electric guitar lessons at JamPlay.com
Songbook:
Login to add this song to your songbook
Support the artist
Preview/buy this song
MSN Music
Why this non-profit ad?

 
login to add comments/video/corrections