Slow Drag

Fastball

 AmCFDmAmCFDm
e------------------------------------------------------------------|
B------------------------------------------------------------------|
G-----0h2-0-------------------------0h2--0h2-0---------------------|
D------------2-0--------0h2-0-------------------2--2-2-0-----------|
A----------------3----0-----------------------------------3-0--0---|
E------------------------------------------------------------------|


VERSE 1
 AmCFDm
 Slow Drag off a cigarette

 AmCFDm
 Slow Drag and I'm lying in my bed

CHORUS 1
 AmCFDm
And all the world is sleeping like a baby tonight
 AmCFDm
wanna lay you down in the ground all right

VERSE 2
 AmCFDm
 Slow drag and I can't get up now

 AmCFDm
 Slow drag you've been messing with my mind

CHORUS 2
 AmCFDm
And all the world is sleeping like a baby tonight
 AmCFDm
wanna see you dead laying in the muddy ground

BRIDGE 1
 CGF
You're nothing to me, nothing to me, nothing to me no more

BREAK

 CGBbF
e-------------------------------------|
B-------------------------------------|
G---------0----------0---------0------|
D-----0h2--------0h2-------0h2--------|
A--3--------7/2-------7/1--------7/0--|
E-------------------------------------|


 AmCFDm
-------------------------------------------------|
-----------------------------------3/6--5--3-----|
---------------------------------------------5---|
-----------------0-2--2h3-2-0--------------------|
-------0------3---------------3-0----------------|
--0-3-----0-3------------------------------------|


VERSE 3

CHORUS 3

BRIDGE 2

OUTRO

 CGF

Am Bb C Dm F G
variations - click chord images
Transpose chords:
Tuning:
Cool service:
View: Size:
A  A  A
Rating:
Layout:
  • Currently 1.8/5 Stars.
  • 1
  • 2
  • 3
  • 4
  • 5
 
Accuracy:
  • Currently 2.3/5 Stars.
  • 1
  • 2
  • 3
  • 4
  • 5
 
click stars to rate
Chordie recommends:
Learn to play guitar with video-based, online guitar lessons at JamPlay.com
Songbook:
Login to add this song to your songbook
Support the artist
Preview/buy this song
MSN Music
Why this non-profit ad?

 
login to add comments/video/corrections