Chordie logo

Lauft   Faust



Artist: Faust
Album: Faust IV
Song: Lauft... Heisst Das Es Lauft Oder Es Kommt Bald... Lauft

For those of you who don't know, Faust is a fantastic Krautrock band from the 70's. I am not sure but 
could be two guitars
playing this where one is doing the bass line but i might be (and probably are!) wrong. It was pretty damn 
to tab and it is
not perfect - I will try to improve it but please give it a go yourself! Basically this is a simplified 
of what they play... :)

Oh and if anyone can translate the title (there are some umlouts - " - missing) please email it to me as i 
love to know what it
means!!!

cheers,
Jonny
maluspumila@email.com


Standard Tuning

Symbols:

5\2 Slide from 5 to 2
2/5 Slide from 2 to 5
0h2 Hammer on from 0 to 2
2p0 Pull off from 2 to 0


This is played pretty fast!


e-------------------------------------------------|
B-----2-------------------2--------3--------------|
G-2-------2------2------------2------2------------|
D---2-------------------0--------0----------------|
A-0-----0-----3-----0h2-----0---------------------|
E--------------------------------3----------------|

e-----------0--------------------------------------|
B-------2-------------------2--------3-------------|
G------------------2------------2------2-----------|
D-----0------------------0--------0----------------|
A-0h2-----0-----3-----0h2-----0--------------------|


Important: The song above is NOT stored on the Chordie server. The original song is hosted at www.guitaretab.com. Chordie works as a search engine and provides on-the-fly formatting. Chordie does not index songs against artists/composers will. To remove this song please click here.

This song is displayed as text-only. Transposing and tuning is only available for chordpro-songs.

Login - add to songbook

Rating click stars to rate

Layout
Accuracy

Jango Player

SHARE PAGE  



You need to log in to post comments